ISO-10303-21;
HEADER;
FILE_DESCRIPTION((''),'2;1');
FILE_NAME('20006268P01','2023-05-03T18:16:41',('sivasanker.y'),(''),
'CREO PARAMETRIC BY PTC INC, 2021284','CREO PARAMETRIC BY PTC INC, 2021284','');
FILE_SCHEMA(('CONFIG_CONTROL_DESIGN'));
ENDSEC;
DATA;
#1=DIRECTION('',(0.E0,0.E0,1.E0));
#2=VECTOR('',#1,3.E1);
#3=CARTESIAN_POINT('',(5.43E1,1.620401480219E-3,0.E0));
#4=LINE('',#3,#2);
#5=DIRECTION('',(0.E0,1.E0,0.E0));
#6=VECTOR('',#5,8.8E0);
#7=CARTESIAN_POINT('',(5.49E1,1.573718386814E2,0.E0));
#8=LINE('',#7,#6);
#9=DIRECTION('',(-1.E0,0.E0,0.E0));
#10=VECTOR('',#9,1.630288708012E1);
#11=CARTESIAN_POINT('',(5.49E1,1.661718386814E2,0.E0));
#12=LINE('',#11,#10);
#13=DIRECTION('',(-8.480480961564E-1,-5.299192642332E-1,0.E0));
#14=VECTOR('',#13,4.551288198725E1);
#15=CARTESIAN_POINT('',(3.859711291988E1,1.661718386814E2,0.E0));
#16=LINE('',#15,#14);
#17=DIRECTION('',(0.E0,-1.E0,0.E0));
#18=VECTOR('',#17,1.420520653441E2);
#19=CARTESIAN_POINT('',(0.E0,1.420536857455E2,0.E0));
#20=LINE('',#19,#18);
#21=DIRECTION('',(1.E0,0.E0,0.E0));
#22=VECTOR('',#21,5.43E1);
#23=CARTESIAN_POINT('',(0.E0,1.620401480210E-3,0.E0));
#24=LINE('',#23,#22);
#25=DIRECTION('',(0.E0,1.E0,0.E0));
#26=VECTOR('',#25,8.8E0);
#27=CARTESIAN_POINT('',(5.43E1,1.620401480219E-3,0.E0));
#28=LINE('',#27,#26);
#29=DIRECTION('',(-1.E0,1.332267629550E-14,0.E0));
#30=VECTOR('',#29,8.E-1);
#31=CARTESIAN_POINT('',(5.43E1,8.801620401480E0,0.E0));
#32=LINE('',#31,#30);
#33=DIRECTION('',(0.E0,-1.E0,0.E0));
#34=VECTOR('',#33,8.E0);
#35=CARTESIAN_POINT('',(5.35E1,8.801620401480E0,0.E0));
#36=LINE('',#35,#34);
#37=DIRECTION('',(-1.E0,0.E0,0.E0));
#38=VECTOR('',#37,5.27E1);
#39=CARTESIAN_POINT('',(5.35E1,8.016204014802E-1,0.E0));
#40=LINE('',#39,#38);
#41=DIRECTION('',(0.E0,1.E0,0.E0));
#42=VECTOR('',#41,1.408086181029E2);
#43=CARTESIAN_POINT('',(8.E-1,8.016204014802E-1,0.E0));
#44=LINE('',#43,#42);
#45=DIRECTION('',(8.480480961564E-1,5.299192642332E-1,0.E0));
#46=VECTOR('',#45,4.484003843748E1);
#47=CARTESIAN_POINT('',(8.E-1,1.416102385044E2,0.E0));
#48=LINE('',#47,#46);
#49=DIRECTION('',(1.E0,0.E0,0.E0));
#50=VECTOR('',#49,1.527349077152E1);
#51=CARTESIAN_POINT('',(3.882650922848E1,1.653718386814E2,0.E0));
#52=LINE('',#51,#50);
#53=DIRECTION('',(0.E0,-1.E0,0.E0));
#54=VECTOR('',#53,8.E0);
#55=CARTESIAN_POINT('',(5.41E1,1.653718386814E2,0.E0));
#56=LINE('',#55,#54);
#57=DIRECTION('',(0.E0,0.E0,1.E0));
#58=VECTOR('',#57,3.E1);
#59=CARTESIAN_POINT('',(5.49E1,1.573718386814E2,0.E0));
#60=LINE('',#59,#58);
#61=DIRECTION('',(0.E0,-1.E0,0.E0));
#62=VECTOR('',#61,8.8E0);
#63=CARTESIAN_POINT('',(5.49E1,1.661718386814E2,3.E1));
#64=LINE('',#63,#62);
#65=DIRECTION('',(-1.E0,0.E0,0.E0));
#66=VECTOR('',#65,8.E-1);
#67=CARTESIAN_POINT('',(5.49E1,1.573718386814E2,3.E1));
#68=LINE('',#67,#66);
#69=DIRECTION('',(0.E0,1.E0,0.E0));
#70=VECTOR('',#69,8.E0);
#71=CARTESIAN_POINT('',(5.41E1,1.573718386814E2,3.E1));
#72=LINE('',#71,#70);
#73=DIRECTION('',(-1.E0,0.E0,0.E0));
#74=VECTOR('',#73,1.527349077152E1);
#75=CARTESIAN_POINT('',(5.41E1,1.653718386814E2,3.E1));
#76=LINE('',#75,#74);
#77=DIRECTION('',(-8.480480961564E-1,-5.299192642332E-1,0.E0));
#78=VECTOR('',#77,4.484003843748E1);
#79=CARTESIAN_POINT('',(3.882650922848E1,1.653718386814E2,3.E1));
#80=LINE('',#79,#78);
#81=DIRECTION('',(0.E0,-1.E0,0.E0));
#82=VECTOR('',#81,1.408086181029E2);
#83=CARTESIAN_POINT('',(8.E-1,1.416102385044E2,3.E1));
#84=LINE('',#83,#82);
#85=DIRECTION('',(1.E0,0.E0,0.E0));
#86=VECTOR('',#85,5.27E1);
#87=CARTESIAN_POINT('',(8.E-1,8.016204014802E-1,3.E1));
#88=LINE('',#87,#86);
#89=DIRECTION('',(0.E0,1.E0,0.E0));
#90=VECTOR('',#89,8.E0);
#91=CARTESIAN_POINT('',(5.35E1,8.016204014802E-1,3.E1));
#92=LINE('',#91,#90);
#93=DIRECTION('',(0.E0,-1.E0,0.E0));
#94=VECTOR('',#93,8.8E0);
#95=CARTESIAN_POINT('',(5.43E1,8.801620401480E0,3.E1));
#96=LINE('',#95,#94);
#97=DIRECTION('',(-1.E0,0.E0,0.E0));
#98=VECTOR('',#97,5.43E1);
#99=CARTESIAN_POINT('',(5.43E1,1.620401480225E-3,3.E1));
#100=LINE('',#99,#98);
#101=DIRECTION('',(0.E0,1.E0,0.E0));
#102=VECTOR('',#101,1.420520653441E2);
#103=CARTESIAN_POINT('',(0.E0,1.620401480208E-3,3.E1));
#104=LINE('',#103,#102);
#105=DIRECTION('',(8.480480961564E-1,5.299192642332E-1,0.E0));
#106=VECTOR('',#105,4.551288198725E1);
#107=CARTESIAN_POINT('',(3.079018521627E-14,1.420536857455E2,3.E1));
#108=LINE('',#107,#106);
#109=DIRECTION('',(1.E0,0.E0,0.E0));
#110=VECTOR('',#109,1.630288708012E1);
#111=CARTESIAN_POINT('',(3.859711291988E1,1.661718386814E2,3.E1));
#112=LINE('',#111,#110);
#113=DIRECTION('',(-1.E0,0.E0,0.E0));
#114=VECTOR('',#113,8.E-1);
#115=CARTESIAN_POINT('',(5.49E1,1.573718386814E2,0.E0));
#116=LINE('',#115,#114);
#117=DIRECTION('',(0.E0,0.E0,1.E0));
#118=VECTOR('',#117,3.E1);
#119=CARTESIAN_POINT('',(5.41E1,1.653718386814E2,0.E0));
#120=LINE('',#119,#118);
#121=DIRECTION('',(0.E0,0.E0,1.E0));
#122=VECTOR('',#121,3.E1);
#123=CARTESIAN_POINT('',(5.41E1,1.573718386814E2,0.E0));
#124=LINE('',#123,#122);
#125=DIRECTION('',(0.E0,0.E0,1.E0));
#126=VECTOR('',#125,3.E1);
#127=CARTESIAN_POINT('',(3.882650922848E1,1.653718386814E2,0.E0));
#128=LINE('',#127,#126);
#129=DIRECTION('',(0.E0,0.E0,1.E0));
#130=VECTOR('',#129,3.E1);
#131=CARTESIAN_POINT('',(8.E-1,1.416102385044E2,0.E0));
#132=LINE('',#131,#130);
#133=DIRECTION('',(0.E0,0.E0,1.E0));
#134=VECTOR('',#133,3.E1);
#135=CARTESIAN_POINT('',(8.E-1,8.016204014802E-1,0.E0));
#136=LINE('',#135,#134);
#137=DIRECTION('',(0.E0,0.E0,1.E0));
#138=VECTOR('',#137,3.E1);
#139=CARTESIAN_POINT('',(5.35E1,8.016204014802E-1,0.E0));
#140=LINE('',#139,#138);
#141=DIRECTION('',(0.E0,0.E0,1.E0));
#142=VECTOR('',#141,3.E1);
#143=CARTESIAN_POINT('',(5.43E1,8.801620401480E0,0.E0));
#144=LINE('',#143,#142);
#145=DIRECTION('',(-1.E0,0.E0,0.E0));
#146=VECTOR('',#145,8.E-1);
#147=CARTESIAN_POINT('',(5.43E1,8.801620401480E0,3.E1));
#148=LINE('',#147,#146);
#149=DIRECTION('',(0.E0,0.E0,1.E0));
#150=VECTOR('',#149,3.E1);
#151=CARTESIAN_POINT('',(5.35E1,8.801620401480E0,0.E0));
#152=LINE('',#151,#150);
#153=DIRECTION('',(0.E0,0.E0,1.E0));
#154=VECTOR('',#153,3.E1);
#155=CARTESIAN_POINT('',(0.E0,1.620401480210E-3,0.E0));
#156=LINE('',#155,#154);
#157=DIRECTION('',(0.E0,0.E0,1.E0));
#158=VECTOR('',#157,3.E1);
#159=CARTESIAN_POINT('',(0.E0,1.420536857455E2,0.E0));
#160=LINE('',#159,#158);
#161=DIRECTION('',(0.E0,0.E0,1.E0));
#162=VECTOR('',#161,3.E1);
#163=CARTESIAN_POINT('',(3.859711291988E1,1.661718386814E2,0.E0));
#164=LINE('',#163,#162);
#165=DIRECTION('',(0.E0,0.E0,1.E0));
#166=VECTOR('',#165,3.E1);
#167=CARTESIAN_POINT('',(5.49E1,1.661718386814E2,0.E0));
#168=LINE('',#167,#166);
#169=CARTESIAN_POINT('',(5.49E1,1.573718386814E2,0.E0));
#170=CARTESIAN_POINT('',(5.49E1,1.573718386814E2,3.E1));
#171=VERTEX_POINT('',#169);
#172=VERTEX_POINT('',#170);
#173=CARTESIAN_POINT('',(5.43E1,8.801620401480E0,0.E0));
#174=CARTESIAN_POINT('',(5.43E1,8.801620401480E0,3.E1));
#175=VERTEX_POINT('',#173);
#176=VERTEX_POINT('',#174);
#177=CARTESIAN_POINT('',(5.41E1,1.573718386814E2,0.E0));
#178=CARTESIAN_POINT('',(5.41E1,1.573718386814E2,3.E1));
#179=VERTEX_POINT('',#177);
#180=VERTEX_POINT('',#178);
#181=CARTESIAN_POINT('',(5.35E1,8.801620401480E0,0.E0));
#182=CARTESIAN_POINT('',(5.35E1,8.801620401480E0,3.E1));
#183=VERTEX_POINT('',#181);
#184=VERTEX_POINT('',#182);
#185=CARTESIAN_POINT('',(5.43E1,1.620401480219E-3,0.E0));
#186=CARTESIAN_POINT('',(5.43E1,1.620401480225E-3,3.E1));
#187=VERTEX_POINT('',#185);
#188=VERTEX_POINT('',#186);
#189=CARTESIAN_POINT('',(0.E0,1.620401480210E-3,0.E0));
#190=CARTESIAN_POINT('',(0.E0,1.620401480208E-3,3.E1));
#191=VERTEX_POINT('',#189);
#192=VERTEX_POINT('',#190);
#193=CARTESIAN_POINT('',(5.35E1,8.016204014802E-1,0.E0));
#194=CARTESIAN_POINT('',(5.35E1,8.016204014802E-1,3.E1));
#195=VERTEX_POINT('',#193);
#196=VERTEX_POINT('',#194);
#197=CARTESIAN_POINT('',(8.E-1,8.016204014802E-1,0.E0));
#198=CARTESIAN_POINT('',(8.E-1,8.016204014802E-1,3.E1));
#199=VERTEX_POINT('',#197);
#200=VERTEX_POINT('',#198);
#201=CARTESIAN_POINT('',(0.E0,1.420536857455E2,0.E0));
#202=CARTESIAN_POINT('',(3.079018521627E-14,1.420536857455E2,3.E1));
#203=VERTEX_POINT('',#201);
#204=VERTEX_POINT('',#202);
#205=CARTESIAN_POINT('',(8.E-1,1.416102385044E2,0.E0));
#206=CARTESIAN_POINT('',(8.E-1,1.416102385044E2,3.E1));
#207=VERTEX_POINT('',#205);
#208=VERTEX_POINT('',#206);
#209=CARTESIAN_POINT('',(3.859711291988E1,1.661718386814E2,0.E0));
#210=CARTESIAN_POINT('',(3.859711291988E1,1.661718386814E2,3.E1));
#211=VERTEX_POINT('',#209);
#212=VERTEX_POINT('',#210);
#213=CARTESIAN_POINT('',(3.882650922848E1,1.653718386814E2,0.E0));
#214=CARTESIAN_POINT('',(3.882650922848E1,1.653718386814E2,3.E1));
#215=VERTEX_POINT('',#213);
#216=VERTEX_POINT('',#214);
#217=CARTESIAN_POINT('',(5.49E1,1.661718386814E2,0.E0));
#218=CARTESIAN_POINT('',(5.49E1,1.661718386814E2,3.E1));
#219=VERTEX_POINT('',#217);
#220=VERTEX_POINT('',#218);
#221=CARTESIAN_POINT('',(5.41E1,1.653718386814E2,0.E0));
#222=CARTESIAN_POINT('',(5.41E1,1.653718386814E2,3.E1));
#223=VERTEX_POINT('',#221);
#224=VERTEX_POINT('',#222);
#225=CARTESIAN_POINT('',(5.43E1,2.801620401480E0,0.E0));
#226=DIRECTION('',(1.E0,0.E0,0.E0));
#227=DIRECTION('',(0.E0,1.E0,0.E0));
#228=AXIS2_PLACEMENT_3D('',#225,#226,#227);
#229=PLANE('',#228);
#231=ORIENTED_EDGE('',*,*,#230,.F.);
#233=ORIENTED_EDGE('',*,*,#232,.T.);
#235=ORIENTED_EDGE('',*,*,#234,.F.);
#237=ORIENTED_EDGE('',*,*,#236,.F.);
#238=EDGE_LOOP('',(#231,#233,#235,#237));
#239=FACE_OUTER_BOUND('',#238,.F.);
#240=ADVANCED_FACE('',(#239),#229,.T.);
#241=CARTESIAN_POINT('',(5.45E1,1.603718386814E2,0.E0));
#242=DIRECTION('',(0.E0,0.E0,-1.E0));
#243=DIRECTION('',(0.E0,1.E0,0.E0));
#244=AXIS2_PLACEMENT_3D('',#241,#242,#243);
#245=PLANE('',#244);
#247=ORIENTED_EDGE('',*,*,#246,.T.);
#249=ORIENTED_EDGE('',*,*,#248,.T.);
#251=ORIENTED_EDGE('',*,*,#250,.T.);
#253=ORIENTED_EDGE('',*,*,#252,.T.);
#255=ORIENTED_EDGE('',*,*,#254,.T.);
#256=ORIENTED_EDGE('',*,*,#230,.T.);
#258=ORIENTED_EDGE('',*,*,#257,.T.);
#260=ORIENTED_EDGE('',*,*,#259,.T.);
#262=ORIENTED_EDGE('',*,*,#261,.T.);
#264=ORIENTED_EDGE('',*,*,#263,.T.);
#266=ORIENTED_EDGE('',*,*,#265,.T.);
#268=ORIENTED_EDGE('',*,*,#267,.T.);
#270=ORIENTED_EDGE('',*,*,#269,.T.);
#272=ORIENTED_EDGE('',*,*,#271,.F.);
#273=EDGE_LOOP('',(#247,#249,#251,#253,#255,#256,#258,#260,#262,#264,#266,#268,
#270,#272));
#274=FACE_OUTER_BOUND('',#273,.F.);
#275=ADVANCED_FACE('',(#274),#245,.T.);
#276=CARTESIAN_POINT('',(5.49E1,1.573718386814E2,0.E0));
#277=DIRECTION('',(1.E0,0.E0,0.E0));
#278=DIRECTION('',(0.E0,1.E0,0.E0));
#279=AXIS2_PLACEMENT_3D('',#276,#277,#278);
#280=PLANE('',#279);
#282=ORIENTED_EDGE('',*,*,#281,.F.);
#284=ORIENTED_EDGE('',*,*,#283,.F.);
#285=ORIENTED_EDGE('',*,*,#246,.F.);
#287=ORIENTED_EDGE('',*,*,#286,.T.);
#288=EDGE_LOOP('',(#282,#284,#285,#287));
#289=FACE_OUTER_BOUND('',#288,.F.);
#290=ADVANCED_FACE('',(#289),#280,.T.);
#291=CARTESIAN_POINT('',(5.39E1,5.801620401480E0,3.E1));
#292=DIRECTION('',(0.E0,0.E0,-1.E0));
#293=DIRECTION('',(0.E0,1.E0,0.E0));
#294=AXIS2_PLACEMENT_3D('',#291,#292,#293);
#295=PLANE('',#294);
#296=ORIENTED_EDGE('',*,*,#281,.T.);
#298=ORIENTED_EDGE('',*,*,#297,.T.);
#300=ORIENTED_EDGE('',*,*,#299,.T.);
#302=ORIENTED_EDGE('',*,*,#301,.T.);
#304=ORIENTED_EDGE('',*,*,#303,.T.);
#306=ORIENTED_EDGE('',*,*,#305,.T.);
#308=ORIENTED_EDGE('',*,*,#307,.T.);
#310=ORIENTED_EDGE('',*,*,#309,.T.);
#312=ORIENTED_EDGE('',*,*,#311,.F.);
#313=ORIENTED_EDGE('',*,*,#234,.T.);
#315=ORIENTED_EDGE('',*,*,#314,.T.);
#317=ORIENTED_EDGE('',*,*,#316,.T.);
#319=ORIENTED_EDGE('',*,*,#318,.T.);
#321=ORIENTED_EDGE('',*,*,#320,.T.);
#322=EDGE_LOOP('',(#296,#298,#300,#302,#304,#306,#308,#310,#312,#313,#315,#317,
#319,#321));
#323=FACE_OUTER_BOUND('',#322,.F.);
#324=ADVANCED_FACE('',(#323),#295,.F.);
#325=CARTESIAN_POINT('',(5.45E1,1.573718386814E2,1.5E1));
#326=DIRECTION('',(0.E0,1.E0,0.E0));
#327=DIRECTION('',(0.E0,0.E0,1.E0));
#328=AXIS2_PLACEMENT_3D('',#325,#326,#327);
#329=PLANE('',#328);
#330=ORIENTED_EDGE('',*,*,#286,.F.);
#331=ORIENTED_EDGE('',*,*,#271,.T.);
#333=ORIENTED_EDGE('',*,*,#332,.T.);
#334=ORIENTED_EDGE('',*,*,#297,.F.);
#335=EDGE_LOOP('',(#330,#331,#333,#334));
#336=FACE_OUTER_BOUND('',#335,.F.);
#337=ADVANCED_FACE('',(#336),#329,.F.);
#338=CARTESIAN_POINT('',(5.41E1,1.573718386814E2,0.E0));
#339=DIRECTION('',(1.E0,0.E0,0.E0));
#340=DIRECTION('',(0.E0,1.E0,0.E0));
#341=AXIS2_PLACEMENT_3D('',#338,#339,#340);
#342=PLANE('',#341);
#343=ORIENTED_EDGE('',*,*,#269,.F.);
#345=ORIENTED_EDGE('',*,*,#344,.T.);
#346=ORIENTED_EDGE('',*,*,#299,.F.);
#347=ORIENTED_EDGE('',*,*,#332,.F.);
#348=EDGE_LOOP('',(#343,#345,#346,#347));
#349=FACE_OUTER_BOUND('',#348,.F.);
#350=ADVANCED_FACE('',(#349),#342,.F.);
#351=CARTESIAN_POINT('',(5.21E1,1.653718386814E2,0.E0));
#352=DIRECTION('',(0.E0,1.E0,0.E0));
#353=DIRECTION('',(-1.E0,0.E0,0.E0));
#354=AXIS2_PLACEMENT_3D('',#351,#352,#353);
#355=PLANE('',#354);
#356=ORIENTED_EDGE('',*,*,#267,.F.);
#358=ORIENTED_EDGE('',*,*,#357,.T.);
#359=ORIENTED_EDGE('',*,*,#301,.F.);
#360=ORIENTED_EDGE('',*,*,#344,.F.);
#361=EDGE_LOOP('',(#356,#358,#359,#360));
#362=FACE_OUTER_BOUND('',#361,.F.);
#363=ADVANCED_FACE('',(#362),#355,.F.);
#364=CARTESIAN_POINT('',(3.834016147153E1,1.650679348737E2,0.E0));
#365=DIRECTION('',(-5.299192642332E-1,8.480480961564E-1,0.E0));
#366=DIRECTION('',(-8.480480961564E-1,-5.299192642332E-1,0.E0));
#367=AXIS2_PLACEMENT_3D('',#364,#365,#366);
#368=PLANE('',#367);
#369=ORIENTED_EDGE('',*,*,#265,.F.);
#371=ORIENTED_EDGE('',*,*,#370,.T.);
#372=ORIENTED_EDGE('',*,*,#303,.F.);
#373=ORIENTED_EDGE('',*,*,#357,.F.);
#374=EDGE_LOOP('',(#369,#371,#372,#373));
#375=FACE_OUTER_BOUND('',#374,.F.);
#376=ADVANCED_FACE('',(#375),#368,.F.);
#377=CARTESIAN_POINT('',(8.E-1,1.405016204015E2,0.E0));
#378=DIRECTION('',(-1.E0,0.E0,0.E0));
#379=DIRECTION('',(0.E0,-1.E0,0.E0));
#380=AXIS2_PLACEMENT_3D('',#377,#378,#379);
#381=PLANE('',#380);
#382=ORIENTED_EDGE('',*,*,#263,.F.);
#384=ORIENTED_EDGE('',*,*,#383,.T.);
#385=ORIENTED_EDGE('',*,*,#305,.F.);
#386=ORIENTED_EDGE('',*,*,#370,.F.);
#387=EDGE_LOOP('',(#382,#384,#385,#386));
#388=FACE_OUTER_BOUND('',#387,.F.);
#389=ADVANCED_FACE('',(#388),#381,.F.);
#390=CARTESIAN_POINT('',(2.8E0,8.016204014802E-1,0.E0));
#391=DIRECTION('',(0.E0,-1.E0,0.E0));
#392=DIRECTION('',(1.E0,0.E0,0.E0));
#393=AXIS2_PLACEMENT_3D('',#390,#391,#392);
#394=PLANE('',#393);
#395=ORIENTED_EDGE('',*,*,#261,.F.);
#397=ORIENTED_EDGE('',*,*,#396,.T.);
#398=ORIENTED_EDGE('',*,*,#307,.F.);
#399=ORIENTED_EDGE('',*,*,#383,.F.);
#400=EDGE_LOOP('',(#395,#397,#398,#399));
#401=FACE_OUTER_BOUND('',#400,.F.);
#402=ADVANCED_FACE('',(#401),#394,.F.);
#403=CARTESIAN_POINT('',(5.35E1,2.801620401480E0,0.E0));
#404=DIRECTION('',(1.E0,0.E0,0.E0));
#405=DIRECTION('',(0.E0,1.E0,0.E0));
#406=AXIS2_PLACEMENT_3D('',#403,#404,#405);
#407=PLANE('',#406);
#408=ORIENTED_EDGE('',*,*,#309,.F.);
#409=ORIENTED_EDGE('',*,*,#396,.F.);
#410=ORIENTED_EDGE('',*,*,#259,.F.);
#412=ORIENTED_EDGE('',*,*,#411,.T.);
#413=EDGE_LOOP('',(#408,#409,#410,#412));
#414=FACE_OUTER_BOUND('',#413,.F.);
#415=ADVANCED_FACE('',(#414),#407,.F.);
#416=CARTESIAN_POINT('',(5.39E1,8.801620401480E0,1.5E1));
#417=DIRECTION('',(0.E0,1.E0,0.E0));
#418=DIRECTION('',(0.E0,0.E0,1.E0));
#419=AXIS2_PLACEMENT_3D('',#416,#417,#418);
#420=PLANE('',#419);
#421=ORIENTED_EDGE('',*,*,#236,.T.);
#422=ORIENTED_EDGE('',*,*,#311,.T.);
#423=ORIENTED_EDGE('',*,*,#411,.F.);
#424=ORIENTED_EDGE('',*,*,#257,.F.);
#425=EDGE_LOOP('',(#421,#422,#423,#424));
#426=FACE_OUTER_BOUND('',#425,.F.);
#427=ADVANCED_FACE('',(#426),#420,.T.);
#428=CARTESIAN_POINT('',(2.8E0,1.620401480211E-3,0.E0));
#429=DIRECTION('',(0.E0,-1.E0,0.E0));
#430=DIRECTION('',(1.E0,0.E0,0.E0));
#431=AXIS2_PLACEMENT_3D('',#428,#429,#430);
#432=PLANE('',#431);
#433=ORIENTED_EDGE('',*,*,#314,.F.);
#434=ORIENTED_EDGE('',*,*,#232,.F.);
#435=ORIENTED_EDGE('',*,*,#254,.F.);
#437=ORIENTED_EDGE('',*,*,#436,.T.);
#438=EDGE_LOOP('',(#433,#434,#435,#437));
#439=FACE_OUTER_BOUND('',#438,.F.);
#440=ADVANCED_FACE('',(#439),#432,.T.);
#441=CARTESIAN_POINT('',(0.E0,1.405016204015E2,0.E0));
#442=DIRECTION('',(-1.E0,0.E0,0.E0));
#443=DIRECTION('',(0.E0,-1.E0,0.E0));
#444=AXIS2_PLACEMENT_3D('',#441,#442,#443);
#445=PLANE('',#444);
#446=ORIENTED_EDGE('',*,*,#316,.F.);
#447=ORIENTED_EDGE('',*,*,#436,.F.);
#448=ORIENTED_EDGE('',*,*,#252,.F.);
#450=ORIENTED_EDGE('',*,*,#449,.T.);
#451=EDGE_LOOP('',(#446,#447,#448,#450));
#452=FACE_OUTER_BOUND('',#451,.F.);
#453=ADVANCED_FACE('',(#452),#445,.T.);
#454=CARTESIAN_POINT('',(3.791622606015E1,1.657463733506E2,0.E0));
#455=DIRECTION('',(-5.299192642332E-1,8.480480961564E-1,0.E0));
#456=DIRECTION('',(-8.480480961564E-1,-5.299192642332E-1,0.E0));
#457=AXIS2_PLACEMENT_3D('',#454,#455,#456);
#458=PLANE('',#457);
#459=ORIENTED_EDGE('',*,*,#318,.F.);
#460=ORIENTED_EDGE('',*,*,#449,.F.);
#461=ORIENTED_EDGE('',*,*,#250,.F.);
#463=ORIENTED_EDGE('',*,*,#462,.T.);
#464=EDGE_LOOP('',(#459,#460,#461,#463));
#465=FACE_OUTER_BOUND('',#464,.F.);
#466=ADVANCED_FACE('',(#465),#458,.T.);
#467=CARTESIAN_POINT('',(5.21E1,1.661718386814E2,0.E0));
#468=DIRECTION('',(0.E0,1.E0,0.E0));
#469=DIRECTION('',(-1.E0,0.E0,0.E0));
#470=AXIS2_PLACEMENT_3D('',#467,#468,#469);
#471=PLANE('',#470);
#472=ORIENTED_EDGE('',*,*,#320,.F.);
#473=ORIENTED_EDGE('',*,*,#462,.F.);
#474=ORIENTED_EDGE('',*,*,#248,.F.);
#475=ORIENTED_EDGE('',*,*,#283,.T.);
#476=EDGE_LOOP('',(#472,#473,#474,#475));
#477=FACE_OUTER_BOUND('',#476,.F.);
#478=ADVANCED_FACE('',(#477),#471,.T.);
#482=DIMENSIONAL_EXPONENTS(0.E0,0.E0,0.E0,0.E0,0.E0,0.E0,0.E0);
#484=PLANE_ANGLE_MEASURE_WITH_UNIT(PLANE_ANGLE_MEASURE(1.745329251994E-2),#483);
#485=(CONVERSION_BASED_UNIT('DEGREE',#484)NAMED_UNIT(*)PLANE_ANGLE_UNIT());
#487=UNCERTAINTY_MEASURE_WITH_UNIT(LENGTH_MEASURE(1.E-2),#481,'closure',
'Maximum model space distance between geometric entities at asserted connectivities');
#488=(GEOMETRIC_REPRESENTATION_CONTEXT(3)GLOBAL_UNCERTAINTY_ASSIGNED_CONTEXT((
#487))GLOBAL_UNIT_ASSIGNED_CONTEXT((#481,#485,#486))REPRESENTATION_CONTEXT
('ID1','3'));
#490=APPLICATION_CONTEXT(
'CONFIGURATION CONTROLLED 3D DESIGNS OF MECHANICAL PARTS AND ASSEMBLIES');
#491=APPLICATION_PROTOCOL_DEFINITION('international standard',
'config_control_design',1994,#490);
#492=DESIGN_CONTEXT('',#490,'design');
#493=MECHANICAL_CONTEXT('',#490,'mechanical');
#494=PRODUCT('20006268P01','20006268P01','NOT SPECIFIED',(#493));
#495=PRODUCT_DEFINITION_FORMATION_WITH_SPECIFIED_SOURCE('10','LAST_VERSION',
#494,.MADE.);
#499=PRODUCT_CATEGORY('part','');
#500=PRODUCT_RELATED_PRODUCT_CATEGORY('detail','',(#494));
#501=PRODUCT_CATEGORY_RELATIONSHIP('','',#499,#500);
#502=SECURITY_CLASSIFICATION_LEVEL('unclassified');
#503=SECURITY_CLASSIFICATION('','',#502);
#504=CC_DESIGN_SECURITY_CLASSIFICATION(#503,(#495));
#505=APPROVAL_STATUS('approved');
#506=APPROVAL(#505,'');
#507=CC_DESIGN_APPROVAL(#506,(#503,#495,#496));
#508=CALENDAR_DATE(123,3,5);
#509=COORDINATED_UNIVERSAL_TIME_OFFSET(5,30,.AHEAD.);
#510=LOCAL_TIME(18,16,4.1E1,#509);
#511=DATE_AND_TIME(#508,#510);
#512=APPROVAL_DATE_TIME(#511,#506);
#513=DATE_TIME_ROLE('creation_date');
#514=CC_DESIGN_DATE_AND_TIME_ASSIGNMENT(#511,#513,(#496));
#515=DATE_TIME_ROLE('classification_date');
#516=CC_DESIGN_DATE_AND_TIME_ASSIGNMENT(#511,#515,(#503));
#517=PERSON('UNSPECIFIED','UNSPECIFIED',$,$,$,$);
#518=ORGANIZATION('UNSPECIFIED','UNSPECIFIED','UNSPECIFIED');
#519=PERSON_AND_ORGANIZATION(#517,#518);
#520=APPROVAL_ROLE('approver');
#521=APPROVAL_PERSON_ORGANIZATION(#519,#506,#520);
#522=PERSON_AND_ORGANIZATION_ROLE('creator');
#523=CC_DESIGN_PERSON_AND_ORGANIZATION_ASSIGNMENT(#519,#522,(#495,#496));
#524=PERSON_AND_ORGANIZATION_ROLE('design_supplier');
#525=CC_DESIGN_PERSON_AND_ORGANIZATION_ASSIGNMENT(#519,#524,(#495));
#526=PERSON_AND_ORGANIZATION_ROLE('classification_officer');
#527=CC_DESIGN_PERSON_AND_ORGANIZATION_ASSIGNMENT(#519,#526,(#503));
#528=PERSON_AND_ORGANIZATION_ROLE('design_owner');
#529=CC_DESIGN_PERSON_AND_ORGANIZATION_ASSIGNMENT(#519,#528,(#494));
#230=EDGE_CURVE('',#187,#175,#28,.T.);
#232=EDGE_CURVE('',#187,#188,#4,.T.);
#234=EDGE_CURVE('',#176,#188,#96,.T.);
#236=EDGE_CURVE('',#175,#176,#144,.T.);
#246=EDGE_CURVE('',#171,#219,#8,.T.);
#248=EDGE_CURVE('',#219,#211,#12,.T.);
#250=EDGE_CURVE('',#211,#203,#16,.T.);
#252=EDGE_CURVE('',#203,#191,#20,.T.);
#254=EDGE_CURVE('',#191,#187,#24,.T.);
#257=EDGE_CURVE('',#175,#183,#32,.T.);
#259=EDGE_CURVE('',#183,#195,#36,.T.);
#261=EDGE_CURVE('',#195,#199,#40,.T.);
#263=EDGE_CURVE('',#199,#207,#44,.T.);
#265=EDGE_CURVE('',#207,#215,#48,.T.);
#267=EDGE_CURVE('',#215,#223,#52,.T.);
#269=EDGE_CURVE('',#223,#179,#56,.T.);
#271=EDGE_CURVE('',#171,#179,#116,.T.);
#281=EDGE_CURVE('',#220,#172,#64,.T.);
#283=EDGE_CURVE('',#219,#220,#168,.T.);
#286=EDGE_CURVE('',#171,#172,#60,.T.);
#297=EDGE_CURVE('',#172,#180,#68,.T.);
#299=EDGE_CURVE('',#180,#224,#72,.T.);
#301=EDGE_CURVE('',#224,#216,#76,.T.);
#303=EDGE_CURVE('',#216,#208,#80,.T.);
#305=EDGE_CURVE('',#208,#200,#84,.T.);
#307=EDGE_CURVE('',#200,#196,#88,.T.);
#309=EDGE_CURVE('',#196,#184,#92,.T.);
#311=EDGE_CURVE('',#176,#184,#148,.T.);
#314=EDGE_CURVE('',#188,#192,#100,.T.);
#316=EDGE_CURVE('',#192,#204,#104,.T.);
#318=EDGE_CURVE('',#204,#212,#108,.T.);
#320=EDGE_CURVE('',#212,#220,#112,.T.);
#332=EDGE_CURVE('',#179,#180,#124,.T.);
#344=EDGE_CURVE('',#223,#224,#120,.T.);
#357=EDGE_CURVE('',#215,#216,#128,.T.);
#370=EDGE_CURVE('',#207,#208,#132,.T.);
#383=EDGE_CURVE('',#199,#200,#136,.T.);
#396=EDGE_CURVE('',#195,#196,#140,.T.);
#411=EDGE_CURVE('',#183,#184,#152,.T.);
#436=EDGE_CURVE('',#191,#192,#156,.T.);
#449=EDGE_CURVE('',#203,#204,#160,.T.);
#462=EDGE_CURVE('',#211,#212,#164,.T.);
#479=CLOSED_SHELL('',(#240,#275,#290,#324,#337,#350,#363,#376,#389,#402,#415,
#427,#440,#453,#466,#478));
#480=MANIFOLD_SOLID_BREP('',#479);
#481=(LENGTH_UNIT()NAMED_UNIT(*)SI_UNIT(.MILLI.,.METRE.));
#483=(NAMED_UNIT(*)PLANE_ANGLE_UNIT()SI_UNIT($,.RADIAN.));
#486=(NAMED_UNIT(*)SI_UNIT($,.STERADIAN.)SOLID_ANGLE_UNIT());
#489=ADVANCED_BREP_SHAPE_REPRESENTATION('',(#480),#488);
#496=PRODUCT_DEFINITION('design','',#495,#492);
#497=PRODUCT_DEFINITION_SHAPE('','SHAPE FOR 20006268P01.',#496);
#498=SHAPE_DEFINITION_REPRESENTATION(#497,#489);
ENDSEC;
END-ISO-10303-21;
