ISO-10303-21;
HEADER;
FILE_DESCRIPTION((''),'2;1');
FILE_NAME('20003582P01','2023-05-08T10:25:06',('sivasanker.y'),(''),
'CREO PARAMETRIC BY PTC INC, 2021284','CREO PARAMETRIC BY PTC INC, 2021284','');
FILE_SCHEMA(('CONFIG_CONTROL_DESIGN'));
ENDSEC;
DATA;
#1=DIRECTION('',(0.E0,0.E0,1.E0));
#2=VECTOR('',#1,1.5E3);
#3=CARTESIAN_POINT('',(4.E-1,1.32E1,0.E0));
#4=LINE('',#3,#2);
#5=DIRECTION('',(0.E0,-1.E0,0.E0));
#6=VECTOR('',#5,5.E0);
#7=CARTESIAN_POINT('',(4.E-1,1.32E1,0.E0));
#8=LINE('',#7,#6);
#9=DIRECTION('',(1.E0,0.E0,0.E0));
#10=VECTOR('',#9,8.E-1);
#11=CARTESIAN_POINT('',(4.E-1,8.2E0,0.E0));
#12=LINE('',#11,#10);
#13=DIRECTION('',(0.E0,-1.E0,0.E0));
#14=VECTOR('',#13,5.E0);
#15=CARTESIAN_POINT('',(1.2E0,1.32E1,0.E0));
#16=LINE('',#15,#14);
#17=DIRECTION('',(0.E0,0.E0,1.E0));
#18=VECTOR('',#17,1.5E3);
#19=CARTESIAN_POINT('',(4.E-1,8.2E0,0.E0));
#20=LINE('',#19,#18);
#21=DIRECTION('',(1.E0,0.E0,0.E0));
#22=VECTOR('',#21,8.E-1);
#23=CARTESIAN_POINT('',(4.E-1,8.2E0,1.5E3));
#24=LINE('',#23,#22);
#25=DIRECTION('',(0.E0,0.E0,1.E0));
#26=VECTOR('',#25,1.5E3);
#27=CARTESIAN_POINT('',(1.2E0,8.2E0,0.E0));
#28=LINE('',#27,#26);
#29=DIRECTION('',(0.E0,-1.E0,0.E0));
#30=VECTOR('',#29,5.E0);
#31=CARTESIAN_POINT('',(4.E-1,1.32E1,1.5E3));
#32=LINE('',#31,#30);
#33=DIRECTION('',(1.E0,0.E0,0.E0));
#34=VECTOR('',#33,8.E-1);
#35=CARTESIAN_POINT('',(4.E-1,1.32E1,1.5E3));
#36=LINE('',#35,#34);
#37=DIRECTION('',(0.E0,-1.E0,0.E0));
#38=VECTOR('',#37,5.E0);
#39=CARTESIAN_POINT('',(1.2E0,1.32E1,1.5E3));
#40=LINE('',#39,#38);
#41=CARTESIAN_POINT('',(2.E-1,1.32E1,1.5E3));
#42=DIRECTION('',(0.E0,0.E0,-1.E0));
#43=DIRECTION('',(-1.E0,0.E0,0.E0));
#44=AXIS2_PLACEMENT_3D('',#41,#42,#43);
#46=DIRECTION('',(-1.E0,0.E0,0.E0));
#47=VECTOR('',#46,8.E-1);
#48=CARTESIAN_POINT('',(0.E0,1.32E1,1.5E3));
#49=LINE('',#48,#47);
#50=CARTESIAN_POINT('',(2.E-1,1.32E1,1.5E3));
#51=DIRECTION('',(0.E0,0.E0,-1.E0));
#52=DIRECTION('',(-1.E0,0.E0,0.E0));
#53=AXIS2_PLACEMENT_3D('',#50,#51,#52);
#55=DIRECTION('',(0.E0,0.E0,1.E0));
#56=VECTOR('',#55,1.5E3);
#57=CARTESIAN_POINT('',(0.E0,1.32E1,0.E0));
#58=LINE('',#57,#56);
#59=CARTESIAN_POINT('',(2.E-1,1.32E1,0.E0));
#60=DIRECTION('',(0.E0,0.E0,-1.E0));
#61=DIRECTION('',(-1.E0,0.E0,0.E0));
#62=AXIS2_PLACEMENT_3D('',#59,#60,#61);
#64=DIRECTION('',(1.E0,0.E0,0.E0));
#65=VECTOR('',#64,8.E-1);
#66=CARTESIAN_POINT('',(4.E-1,1.32E1,0.E0));
#67=LINE('',#66,#65);
#68=CARTESIAN_POINT('',(2.E-1,1.32E1,0.E0));
#69=DIRECTION('',(0.E0,0.E0,-1.E0));
#70=DIRECTION('',(-1.E0,0.E0,0.E0));
#71=AXIS2_PLACEMENT_3D('',#68,#69,#70);
#73=DIRECTION('',(0.E0,0.E0,1.E0));
#74=VECTOR('',#73,1.5E3);
#75=CARTESIAN_POINT('',(-8.E-1,1.32E1,0.E0));
#76=LINE('',#75,#74);
#77=DIRECTION('',(0.E0,0.E0,1.E0));
#78=VECTOR('',#77,1.5E3);
#79=CARTESIAN_POINT('',(1.2E0,1.32E1,0.E0));
#80=LINE('',#79,#78);
#81=DIRECTION('',(0.E0,1.E0,0.E0));
#82=VECTOR('',#81,1.8E1);
#83=CARTESIAN_POINT('',(4.72E1,0.E0,1.5E3));
#84=LINE('',#83,#82);
#85=DIRECTION('',(1.E0,0.E0,0.E0));
#86=VECTOR('',#85,7.E0);
#87=CARTESIAN_POINT('',(4.72E1,1.8E1,1.5E3));
#88=LINE('',#87,#86);
#89=DIRECTION('',(0.E0,-1.E0,0.E0));
#90=VECTOR('',#89,1.68E1);
#91=CARTESIAN_POINT('',(5.42E1,1.8E1,1.5E3));
#92=LINE('',#91,#90);
#93=DIRECTION('',(-1.E0,0.E0,0.E0));
#94=VECTOR('',#93,8.E-1);
#95=CARTESIAN_POINT('',(5.42E1,1.2E0,1.5E3));
#96=LINE('',#95,#94);
#97=DIRECTION('',(0.E0,1.E0,0.E0));
#98=VECTOR('',#97,1.6E1);
#99=CARTESIAN_POINT('',(5.34E1,1.2E0,1.5E3));
#100=LINE('',#99,#98);
#101=DIRECTION('',(-1.E0,0.E0,0.E0));
#102=VECTOR('',#101,5.4E0);
#103=CARTESIAN_POINT('',(5.34E1,1.72E1,1.5E3));
#104=LINE('',#103,#102);
#105=DIRECTION('',(0.E0,-1.E0,0.E0));
#106=VECTOR('',#105,1.8E1);
#107=CARTESIAN_POINT('',(4.8E1,1.72E1,1.5E3));
#108=LINE('',#107,#106);
#109=DIRECTION('',(-1.E0,0.E0,0.E0));
#110=VECTOR('',#109,4.88E1);
#111=CARTESIAN_POINT('',(4.8E1,-8.E-1,1.5E3));
#112=LINE('',#111,#110);
#113=DIRECTION('',(0.E0,1.E0,0.E0));
#114=VECTOR('',#113,1.4E1);
#115=CARTESIAN_POINT('',(-8.E-1,-8.E-1,1.5E3));
#116=LINE('',#115,#114);
#117=DIRECTION('',(0.E0,-1.E0,0.E0));
#118=VECTOR('',#117,1.32E1);
#119=CARTESIAN_POINT('',(0.E0,1.32E1,1.5E3));
#120=LINE('',#119,#118);
#121=DIRECTION('',(1.E0,0.E0,0.E0));
#122=VECTOR('',#121,4.72E1);
#123=CARTESIAN_POINT('',(0.E0,0.E0,1.5E3));
#124=LINE('',#123,#122);
#125=DIRECTION('',(0.E0,0.E0,1.E0));
#126=VECTOR('',#125,1.5E3);
#127=CARTESIAN_POINT('',(4.72E1,1.8E1,0.E0));
#128=LINE('',#127,#126);
#129=DIRECTION('',(0.E0,0.E0,-1.E0));
#130=VECTOR('',#129,1.5E3);
#131=CARTESIAN_POINT('',(4.72E1,0.E0,1.5E3));
#132=LINE('',#131,#130);
#133=DIRECTION('',(0.E0,-1.E0,0.E0));
#134=VECTOR('',#133,1.8E1);
#135=CARTESIAN_POINT('',(4.72E1,1.8E1,0.E0));
#136=LINE('',#135,#134);
#137=DIRECTION('',(-1.E0,0.E0,0.E0));
#138=VECTOR('',#137,4.72E1);
#139=CARTESIAN_POINT('',(4.72E1,0.E0,0.E0));
#140=LINE('',#139,#138);
#141=DIRECTION('',(0.E0,1.E0,0.E0));
#142=VECTOR('',#141,1.32E1);
#143=CARTESIAN_POINT('',(0.E0,0.E0,0.E0));
#144=LINE('',#143,#142);
#145=DIRECTION('',(-1.E0,0.E0,0.E0));
#146=VECTOR('',#145,8.E-1);
#147=CARTESIAN_POINT('',(0.E0,1.32E1,0.E0));
#148=LINE('',#147,#146);
#149=DIRECTION('',(0.E0,-1.E0,0.E0));
#150=VECTOR('',#149,1.4E1);
#151=CARTESIAN_POINT('',(-8.E-1,1.32E1,0.E0));
#152=LINE('',#151,#150);
#153=DIRECTION('',(1.E0,0.E0,0.E0));
#154=VECTOR('',#153,4.88E1);
#155=CARTESIAN_POINT('',(-8.E-1,-8.E-1,0.E0));
#156=LINE('',#155,#154);
#157=DIRECTION('',(0.E0,1.E0,0.E0));
#158=VECTOR('',#157,1.8E1);
#159=CARTESIAN_POINT('',(4.8E1,-8.E-1,0.E0));
#160=LINE('',#159,#158);
#161=DIRECTION('',(1.E0,0.E0,0.E0));
#162=VECTOR('',#161,5.4E0);
#163=CARTESIAN_POINT('',(4.8E1,1.72E1,0.E0));
#164=LINE('',#163,#162);
#165=DIRECTION('',(0.E0,-1.E0,0.E0));
#166=VECTOR('',#165,1.6E1);
#167=CARTESIAN_POINT('',(5.34E1,1.72E1,0.E0));
#168=LINE('',#167,#166);
#169=DIRECTION('',(0.E0,1.E0,0.E0));
#170=VECTOR('',#169,1.68E1);
#171=CARTESIAN_POINT('',(5.42E1,1.2E0,0.E0));
#172=LINE('',#171,#170);
#173=DIRECTION('',(-1.E0,0.E0,0.E0));
#174=VECTOR('',#173,7.E0);
#175=CARTESIAN_POINT('',(5.42E1,1.8E1,0.E0));
#176=LINE('',#175,#174);
#177=DIRECTION('',(0.E0,0.E0,-1.E0));
#178=VECTOR('',#177,1.5E3);
#179=CARTESIAN_POINT('',(0.E0,0.E0,1.5E3));
#180=LINE('',#179,#178);
#181=DIRECTION('',(0.E0,0.E0,1.E0));
#182=VECTOR('',#181,1.5E3);
#183=CARTESIAN_POINT('',(-8.E-1,-8.E-1,0.E0));
#184=LINE('',#183,#182);
#185=DIRECTION('',(0.E0,0.E0,1.E0));
#186=VECTOR('',#185,1.5E3);
#187=CARTESIAN_POINT('',(4.8E1,-8.E-1,0.E0));
#188=LINE('',#187,#186);
#189=DIRECTION('',(0.E0,0.E0,-1.E0));
#190=VECTOR('',#189,1.5E3);
#191=CARTESIAN_POINT('',(4.8E1,1.72E1,1.5E3));
#192=LINE('',#191,#190);
#193=DIRECTION('',(0.E0,0.E0,-1.E0));
#194=VECTOR('',#193,1.5E3);
#195=CARTESIAN_POINT('',(5.34E1,1.72E1,1.5E3));
#196=LINE('',#195,#194);
#197=DIRECTION('',(0.E0,0.E0,1.E0));
#198=VECTOR('',#197,1.5E3);
#199=CARTESIAN_POINT('',(5.34E1,1.2E0,0.E0));
#200=LINE('',#199,#198);
#201=DIRECTION('',(-1.E0,0.E0,0.E0));
#202=VECTOR('',#201,8.E-1);
#203=CARTESIAN_POINT('',(5.42E1,1.2E0,0.E0));
#204=LINE('',#203,#202);
#205=DIRECTION('',(0.E0,0.E0,1.E0));
#206=VECTOR('',#205,1.5E3);
#207=CARTESIAN_POINT('',(5.42E1,1.2E0,0.E0));
#208=LINE('',#207,#206);
#209=DIRECTION('',(0.E0,0.E0,1.E0));
#210=VECTOR('',#209,1.5E3);
#211=CARTESIAN_POINT('',(5.42E1,1.8E1,0.E0));
#212=LINE('',#211,#210);
#213=CARTESIAN_POINT('',(0.E0,1.32E1,0.E0));
#214=CARTESIAN_POINT('',(4.E-1,1.32E1,0.E0));
#215=VERTEX_POINT('',#213);
#216=VERTEX_POINT('',#214);
#217=CARTESIAN_POINT('',(4.E-1,8.2E0,0.E0));
#218=VERTEX_POINT('',#217);
#219=CARTESIAN_POINT('',(0.E0,1.32E1,1.5E3));
#220=CARTESIAN_POINT('',(4.E-1,1.32E1,1.5E3));
#221=VERTEX_POINT('',#219);
#222=VERTEX_POINT('',#220);
#223=CARTESIAN_POINT('',(4.E-1,8.2E0,1.5E3));
#224=VERTEX_POINT('',#223);
#225=CARTESIAN_POINT('',(5.42E1,1.2E0,0.E0));
#226=CARTESIAN_POINT('',(5.42E1,1.2E0,1.5E3));
#227=VERTEX_POINT('',#225);
#228=VERTEX_POINT('',#226);
#229=CARTESIAN_POINT('',(-8.E-1,1.32E1,0.E0));
#230=CARTESIAN_POINT('',(1.2E0,1.32E1,0.E0));
#231=VERTEX_POINT('',#229);
#232=VERTEX_POINT('',#230);
#233=CARTESIAN_POINT('',(1.2E0,8.2E0,0.E0));
#234=VERTEX_POINT('',#233);
#235=CARTESIAN_POINT('',(-8.E-1,1.32E1,1.5E3));
#236=CARTESIAN_POINT('',(1.2E0,1.32E1,1.5E3));
#237=VERTEX_POINT('',#235);
#238=VERTEX_POINT('',#236);
#239=CARTESIAN_POINT('',(1.2E0,8.2E0,1.5E3));
#240=VERTEX_POINT('',#239);
#241=CARTESIAN_POINT('',(5.34E1,1.2E0,0.E0));
#242=CARTESIAN_POINT('',(5.34E1,1.2E0,1.5E3));
#243=VERTEX_POINT('',#241);
#244=VERTEX_POINT('',#242);
#245=CARTESIAN_POINT('',(-8.E-1,-8.E-1,0.E0));
#246=CARTESIAN_POINT('',(-8.E-1,-8.E-1,1.5E3));
#247=VERTEX_POINT('',#245);
#248=VERTEX_POINT('',#246);
#249=CARTESIAN_POINT('',(4.8E1,-8.E-1,0.E0));
#250=CARTESIAN_POINT('',(4.8E1,-8.E-1,1.5E3));
#251=VERTEX_POINT('',#249);
#252=VERTEX_POINT('',#250);
#253=CARTESIAN_POINT('',(0.E0,0.E0,1.5E3));
#254=CARTESIAN_POINT('',(0.E0,0.E0,0.E0));
#255=VERTEX_POINT('',#253);
#256=VERTEX_POINT('',#254);
#257=CARTESIAN_POINT('',(4.72E1,0.E0,1.5E3));
#258=CARTESIAN_POINT('',(4.72E1,0.E0,0.E0));
#259=VERTEX_POINT('',#257);
#260=VERTEX_POINT('',#258);
#261=CARTESIAN_POINT('',(4.8E1,1.72E1,1.5E3));
#262=CARTESIAN_POINT('',(4.8E1,1.72E1,0.E0));
#263=VERTEX_POINT('',#261);
#264=VERTEX_POINT('',#262);
#265=CARTESIAN_POINT('',(4.72E1,1.8E1,0.E0));
#266=CARTESIAN_POINT('',(4.72E1,1.8E1,1.5E3));
#267=VERTEX_POINT('',#265);
#268=VERTEX_POINT('',#266);
#269=CARTESIAN_POINT('',(5.42E1,1.8E1,0.E0));
#270=CARTESIAN_POINT('',(5.42E1,1.8E1,1.5E3));
#271=VERTEX_POINT('',#269);
#272=VERTEX_POINT('',#270);
#273=CARTESIAN_POINT('',(5.34E1,1.72E1,1.5E3));
#274=CARTESIAN_POINT('',(5.34E1,1.72E1,0.E0));
#275=VERTEX_POINT('',#273);
#276=VERTEX_POINT('',#274);
#277=CARTESIAN_POINT('',(4.E-1,1.32E1,0.E0));
#278=DIRECTION('',(-1.E0,0.E0,0.E0));
#279=DIRECTION('',(0.E0,-1.E0,0.E0));
#280=AXIS2_PLACEMENT_3D('',#277,#278,#279);
#281=PLANE('',#280);
#283=ORIENTED_EDGE('',*,*,#282,.F.);
#285=ORIENTED_EDGE('',*,*,#284,.T.);
#287=ORIENTED_EDGE('',*,*,#286,.T.);
#289=ORIENTED_EDGE('',*,*,#288,.F.);
#290=EDGE_LOOP('',(#283,#285,#287,#289));
#291=FACE_OUTER_BOUND('',#290,.F.);
#292=ADVANCED_FACE('',(#291),#281,.T.);
#293=CARTESIAN_POINT('',(8.E-1,1.07E1,0.E0));
#294=DIRECTION('',(0.E0,0.E0,-1.E0));
#295=DIRECTION('',(0.E0,-1.E0,0.E0));
#296=AXIS2_PLACEMENT_3D('',#293,#294,#295);
#297=PLANE('',#296);
#298=ORIENTED_EDGE('',*,*,#282,.T.);
#300=ORIENTED_EDGE('',*,*,#299,.T.);
#302=ORIENTED_EDGE('',*,*,#301,.F.);
#304=ORIENTED_EDGE('',*,*,#303,.F.);
#305=EDGE_LOOP('',(#298,#300,#302,#304));
#306=FACE_OUTER_BOUND('',#305,.F.);
#307=ADVANCED_FACE('',(#306),#297,.T.);
#308=CARTESIAN_POINT('',(8.E-1,8.2E0,7.5E2));
#309=DIRECTION('',(0.E0,-1.E0,0.E0));
#310=DIRECTION('',(0.E0,0.E0,1.E0));
#311=AXIS2_PLACEMENT_3D('',#308,#309,#310);
#312=PLANE('',#311);
#313=ORIENTED_EDGE('',*,*,#288,.T.);
#315=ORIENTED_EDGE('',*,*,#314,.T.);
#317=ORIENTED_EDGE('',*,*,#316,.F.);
#318=ORIENTED_EDGE('',*,*,#299,.F.);
#319=EDGE_LOOP('',(#313,#315,#317,#318));
#320=FACE_OUTER_BOUND('',#319,.F.);
#321=ADVANCED_FACE('',(#320),#312,.T.);
#322=CARTESIAN_POINT('',(8.E-1,1.07E1,1.5E3));
#323=DIRECTION('',(0.E0,0.E0,-1.E0));
#324=DIRECTION('',(0.E0,-1.E0,0.E0));
#325=AXIS2_PLACEMENT_3D('',#322,#323,#324);
#326=PLANE('',#325);
#327=ORIENTED_EDGE('',*,*,#286,.F.);
#329=ORIENTED_EDGE('',*,*,#328,.T.);
#331=ORIENTED_EDGE('',*,*,#330,.T.);
#332=ORIENTED_EDGE('',*,*,#314,.F.);
#333=EDGE_LOOP('',(#327,#329,#331,#332));
#334=FACE_OUTER_BOUND('',#333,.F.);
#335=ADVANCED_FACE('',(#334),#326,.F.);
#336=CARTESIAN_POINT('',(2.E-1,1.38E1,1.5E3));
#337=DIRECTION('',(0.E0,0.E0,-1.E0));
#338=DIRECTION('',(0.E0,1.E0,0.E0));
#339=AXIS2_PLACEMENT_3D('',#336,#337,#338);
#340=PLANE('',#339);
#342=ORIENTED_EDGE('',*,*,#341,.F.);
#344=ORIENTED_EDGE('',*,*,#343,.T.);
#346=ORIENTED_EDGE('',*,*,#345,.T.);
#347=ORIENTED_EDGE('',*,*,#328,.F.);
#348=EDGE_LOOP('',(#342,#344,#346,#347));
#349=FACE_OUTER_BOUND('',#348,.F.);
#350=ADVANCED_FACE('',(#349),#340,.F.);
#351=CARTESIAN_POINT('',(2.E-1,1.32E1,0.E0));
#352=DIRECTION('',(0.E0,0.E0,1.E0));
#353=DIRECTION('',(1.E0,0.E0,0.E0));
#354=AXIS2_PLACEMENT_3D('',#351,#352,#353);
#355=CYLINDRICAL_SURFACE('',#354,2.E-1);
#357=ORIENTED_EDGE('',*,*,#356,.F.);
#359=ORIENTED_EDGE('',*,*,#358,.T.);
#360=ORIENTED_EDGE('',*,*,#341,.T.);
#361=ORIENTED_EDGE('',*,*,#284,.F.);
#362=EDGE_LOOP('',(#357,#359,#360,#361));
#363=FACE_OUTER_BOUND('',#362,.F.);
#364=ADVANCED_FACE('',(#363),#355,.F.);
#365=CARTESIAN_POINT('',(2.E-1,1.38E1,0.E0));
#366=DIRECTION('',(0.E0,0.E0,-1.E0));
#367=DIRECTION('',(0.E0,1.E0,0.E0));
#368=AXIS2_PLACEMENT_3D('',#365,#366,#367);
#369=PLANE('',#368);
#370=ORIENTED_EDGE('',*,*,#356,.T.);
#371=ORIENTED_EDGE('',*,*,#303,.T.);
#373=ORIENTED_EDGE('',*,*,#372,.F.);
#375=ORIENTED_EDGE('',*,*,#374,.F.);
#376=EDGE_LOOP('',(#370,#371,#373,#375));
#377=FACE_OUTER_BOUND('',#376,.F.);
#378=ADVANCED_FACE('',(#377),#369,.T.);
#379=CARTESIAN_POINT('',(2.E-1,1.32E1,0.E0));
#380=DIRECTION('',(0.E0,0.E0,1.E0));
#381=DIRECTION('',(1.E0,0.E0,0.E0));
#382=AXIS2_PLACEMENT_3D('',#379,#380,#381);
#383=CYLINDRICAL_SURFACE('',#382,1.E0);
#384=ORIENTED_EDGE('',*,*,#372,.T.);
#386=ORIENTED_EDGE('',*,*,#385,.T.);
#387=ORIENTED_EDGE('',*,*,#345,.F.);
#389=ORIENTED_EDGE('',*,*,#388,.F.);
#390=EDGE_LOOP('',(#384,#386,#387,#389));
#391=FACE_OUTER_BOUND('',#390,.F.);
#392=ADVANCED_FACE('',(#391),#383,.T.);
#393=CARTESIAN_POINT('',(1.2E0,1.32E1,0.E0));
#394=DIRECTION('',(-1.E0,0.E0,0.E0));
#395=DIRECTION('',(0.E0,-1.E0,0.E0));
#396=AXIS2_PLACEMENT_3D('',#393,#394,#395);
#397=PLANE('',#396);
#398=ORIENTED_EDGE('',*,*,#301,.T.);
#399=ORIENTED_EDGE('',*,*,#316,.T.);
#400=ORIENTED_EDGE('',*,*,#330,.F.);
#401=ORIENTED_EDGE('',*,*,#385,.F.);
#402=EDGE_LOOP('',(#398,#399,#400,#401));
#403=FACE_OUTER_BOUND('',#402,.F.);
#404=ADVANCED_FACE('',(#403),#397,.F.);
#405=CARTESIAN_POINT('',(-8.E-1,0.E0,0.E0));
#406=DIRECTION('',(1.E0,0.E0,0.E0));
#407=DIRECTION('',(0.E0,1.E0,0.E0));
#408=AXIS2_PLACEMENT_3D('',#405,#406,#407);
#409=PLANE('',#408);
#411=ORIENTED_EDGE('',*,*,#410,.F.);
#413=ORIENTED_EDGE('',*,*,#412,.F.);
#415=ORIENTED_EDGE('',*,*,#414,.F.);
#416=ORIENTED_EDGE('',*,*,#388,.T.);
#417=EDGE_LOOP('',(#411,#413,#415,#416));
#418=FACE_OUTER_BOUND('',#417,.F.);
#419=ADVANCED_FACE('',(#418),#409,.F.);
#420=CARTESIAN_POINT('',(-4.E-1,6.4E0,1.5E3));
#421=DIRECTION('',(0.E0,0.E0,-1.E0));
#422=DIRECTION('',(0.E0,1.E0,0.E0));
#423=AXIS2_PLACEMENT_3D('',#420,#421,#422);
#424=PLANE('',#423);
#426=ORIENTED_EDGE('',*,*,#425,.T.);
#428=ORIENTED_EDGE('',*,*,#427,.T.);
#430=ORIENTED_EDGE('',*,*,#429,.T.);
#432=ORIENTED_EDGE('',*,*,#431,.T.);
#434=ORIENTED_EDGE('',*,*,#433,.T.);
#436=ORIENTED_EDGE('',*,*,#435,.T.);
#438=ORIENTED_EDGE('',*,*,#437,.T.);
#440=ORIENTED_EDGE('',*,*,#439,.T.);
#441=ORIENTED_EDGE('',*,*,#410,.T.);
#442=ORIENTED_EDGE('',*,*,#343,.F.);
#444=ORIENTED_EDGE('',*,*,#443,.T.);
#446=ORIENTED_EDGE('',*,*,#445,.T.);
#447=EDGE_LOOP('',(#426,#428,#430,#432,#434,#436,#438,#440,#441,#442,#444,
#446));
#448=FACE_OUTER_BOUND('',#447,.F.);
#449=ADVANCED_FACE('',(#448),#424,.F.);
#450=CARTESIAN_POINT('',(4.72E1,1.8E1,0.E0));
#451=DIRECTION('',(-1.E0,0.E0,0.E0));
#452=DIRECTION('',(0.E0,-1.E0,0.E0));
#453=AXIS2_PLACEMENT_3D('',#450,#451,#452);
#454=PLANE('',#453);
#456=ORIENTED_EDGE('',*,*,#455,.F.);
#458=ORIENTED_EDGE('',*,*,#457,.T.);
#459=ORIENTED_EDGE('',*,*,#425,.F.);
#461=ORIENTED_EDGE('',*,*,#460,.T.);
#462=EDGE_LOOP('',(#456,#458,#459,#461));
#463=FACE_OUTER_BOUND('',#462,.F.);
#464=ADVANCED_FACE('',(#463),#454,.T.);
#465=CARTESIAN_POINT('',(5.38E1,9.4E0,0.E0));
#466=DIRECTION('',(0.E0,0.E0,-1.E0));
#467=DIRECTION('',(0.E0,1.E0,0.E0));
#468=AXIS2_PLACEMENT_3D('',#465,#466,#467);
#469=PLANE('',#468);
#470=ORIENTED_EDGE('',*,*,#455,.T.);
#472=ORIENTED_EDGE('',*,*,#471,.T.);
#474=ORIENTED_EDGE('',*,*,#473,.T.);
#475=ORIENTED_EDGE('',*,*,#374,.T.);
#476=ORIENTED_EDGE('',*,*,#414,.T.);
#478=ORIENTED_EDGE('',*,*,#477,.T.);
#480=ORIENTED_EDGE('',*,*,#479,.T.);
#482=ORIENTED_EDGE('',*,*,#481,.T.);
#484=ORIENTED_EDGE('',*,*,#483,.T.);
#486=ORIENTED_EDGE('',*,*,#485,.F.);
#488=ORIENTED_EDGE('',*,*,#487,.T.);
#490=ORIENTED_EDGE('',*,*,#489,.T.);
#491=EDGE_LOOP('',(#470,#472,#474,#475,#476,#478,#480,#482,#484,#486,#488,
#490));
#492=FACE_OUTER_BOUND('',#491,.F.);
#493=ADVANCED_FACE('',(#492),#469,.T.);
#494=CARTESIAN_POINT('',(4.72E1,0.E0,0.E0));
#495=DIRECTION('',(0.E0,1.E0,0.E0));
#496=DIRECTION('',(-1.E0,0.E0,0.E0));
#497=AXIS2_PLACEMENT_3D('',#494,#495,#496);
#498=PLANE('',#497);
#499=ORIENTED_EDGE('',*,*,#445,.F.);
#501=ORIENTED_EDGE('',*,*,#500,.T.);
#502=ORIENTED_EDGE('',*,*,#471,.F.);
#503=ORIENTED_EDGE('',*,*,#460,.F.);
#504=EDGE_LOOP('',(#499,#501,#502,#503));
#505=FACE_OUTER_BOUND('',#504,.F.);
#506=ADVANCED_FACE('',(#505),#498,.T.);
#507=CARTESIAN_POINT('',(0.E0,0.E0,0.E0));
#508=DIRECTION('',(1.E0,0.E0,0.E0));
#509=DIRECTION('',(0.E0,1.E0,0.E0));
#510=AXIS2_PLACEMENT_3D('',#507,#508,#509);
#511=PLANE('',#510);
#512=ORIENTED_EDGE('',*,*,#473,.F.);
#513=ORIENTED_EDGE('',*,*,#500,.F.);
#514=ORIENTED_EDGE('',*,*,#443,.F.);
#515=ORIENTED_EDGE('',*,*,#358,.F.);
#516=EDGE_LOOP('',(#512,#513,#514,#515));
#517=FACE_OUTER_BOUND('',#516,.F.);
#518=ADVANCED_FACE('',(#517),#511,.T.);
#519=CARTESIAN_POINT('',(4.72E1,-8.E-1,0.E0));
#520=DIRECTION('',(0.E0,1.E0,0.E0));
#521=DIRECTION('',(-1.E0,0.E0,0.E0));
#522=AXIS2_PLACEMENT_3D('',#519,#520,#521);
#523=PLANE('',#522);
#524=ORIENTED_EDGE('',*,*,#477,.F.);
#525=ORIENTED_EDGE('',*,*,#412,.T.);
#526=ORIENTED_EDGE('',*,*,#439,.F.);
#528=ORIENTED_EDGE('',*,*,#527,.F.);
#529=EDGE_LOOP('',(#524,#525,#526,#528));
#530=FACE_OUTER_BOUND('',#529,.F.);
#531=ADVANCED_FACE('',(#530),#523,.F.);
#532=CARTESIAN_POINT('',(4.8E1,1.8E1,0.E0));
#533=DIRECTION('',(-1.E0,0.E0,0.E0));
#534=DIRECTION('',(0.E0,-1.E0,0.E0));
#535=AXIS2_PLACEMENT_3D('',#532,#533,#534);
#536=PLANE('',#535);
#537=ORIENTED_EDGE('',*,*,#479,.F.);
#538=ORIENTED_EDGE('',*,*,#527,.T.);
#539=ORIENTED_EDGE('',*,*,#437,.F.);
#541=ORIENTED_EDGE('',*,*,#540,.T.);
#542=EDGE_LOOP('',(#537,#538,#539,#541));
#543=FACE_OUTER_BOUND('',#542,.F.);
#544=ADVANCED_FACE('',(#543),#536,.F.);
#545=CARTESIAN_POINT('',(5.42E1,1.72E1,0.E0));
#546=DIRECTION('',(0.E0,1.E0,0.E0));
#547=DIRECTION('',(-1.E0,0.E0,0.E0));
#548=AXIS2_PLACEMENT_3D('',#545,#546,#547);
#549=PLANE('',#548);
#550=ORIENTED_EDGE('',*,*,#481,.F.);
#551=ORIENTED_EDGE('',*,*,#540,.F.);
#552=ORIENTED_EDGE('',*,*,#435,.F.);
#554=ORIENTED_EDGE('',*,*,#553,.T.);
#555=EDGE_LOOP('',(#550,#551,#552,#554));
#556=FACE_OUTER_BOUND('',#555,.F.);
#557=ADVANCED_FACE('',(#556),#549,.F.);
#558=CARTESIAN_POINT('',(5.34E1,1.2E0,0.E0));
#559=DIRECTION('',(1.E0,0.E0,0.E0));
#560=DIRECTION('',(0.E0,1.E0,0.E0));
#561=AXIS2_PLACEMENT_3D('',#558,#559,#560);
#562=PLANE('',#561);
#563=ORIENTED_EDGE('',*,*,#483,.F.);
#564=ORIENTED_EDGE('',*,*,#553,.F.);
#565=ORIENTED_EDGE('',*,*,#433,.F.);
#567=ORIENTED_EDGE('',*,*,#566,.F.);
#568=EDGE_LOOP('',(#563,#564,#565,#567));
#569=FACE_OUTER_BOUND('',#568,.F.);
#570=ADVANCED_FACE('',(#569),#562,.F.);
#571=CARTESIAN_POINT('',(5.38E1,1.2E0,7.5E2));
#572=DIRECTION('',(0.E0,1.E0,0.E0));
#573=DIRECTION('',(0.E0,0.E0,1.E0));
#574=AXIS2_PLACEMENT_3D('',#571,#572,#573);
#575=PLANE('',#574);
#577=ORIENTED_EDGE('',*,*,#576,.F.);
#578=ORIENTED_EDGE('',*,*,#485,.T.);
#579=ORIENTED_EDGE('',*,*,#566,.T.);
#580=ORIENTED_EDGE('',*,*,#431,.F.);
#581=EDGE_LOOP('',(#577,#578,#579,#580));
#582=FACE_OUTER_BOUND('',#581,.F.);
#583=ADVANCED_FACE('',(#582),#575,.F.);
#584=CARTESIAN_POINT('',(5.42E1,1.2E0,0.E0));
#585=DIRECTION('',(1.E0,0.E0,0.E0));
#586=DIRECTION('',(0.E0,1.E0,0.E0));
#587=AXIS2_PLACEMENT_3D('',#584,#585,#586);
#588=PLANE('',#587);
#589=ORIENTED_EDGE('',*,*,#429,.F.);
#591=ORIENTED_EDGE('',*,*,#590,.F.);
#592=ORIENTED_EDGE('',*,*,#487,.F.);
#593=ORIENTED_EDGE('',*,*,#576,.T.);
#594=EDGE_LOOP('',(#589,#591,#592,#593));
#595=FACE_OUTER_BOUND('',#594,.F.);
#596=ADVANCED_FACE('',(#595),#588,.T.);
#597=CARTESIAN_POINT('',(5.42E1,1.8E1,0.E0));
#598=DIRECTION('',(0.E0,1.E0,0.E0));
#599=DIRECTION('',(-1.E0,0.E0,0.E0));
#600=AXIS2_PLACEMENT_3D('',#597,#598,#599);
#601=PLANE('',#600);
#602=ORIENTED_EDGE('',*,*,#489,.F.);
#603=ORIENTED_EDGE('',*,*,#590,.T.);
#604=ORIENTED_EDGE('',*,*,#427,.F.);
#605=ORIENTED_EDGE('',*,*,#457,.F.);
#606=EDGE_LOOP('',(#602,#603,#604,#605));
#607=FACE_OUTER_BOUND('',#606,.F.);
#608=ADVANCED_FACE('',(#607),#601,.T.);
#612=DIMENSIONAL_EXPONENTS(0.E0,0.E0,0.E0,0.E0,0.E0,0.E0,0.E0);
#614=PLANE_ANGLE_MEASURE_WITH_UNIT(PLANE_ANGLE_MEASURE(1.745329251994E-2),#613);
#615=(CONVERSION_BASED_UNIT('DEGREE',#614)NAMED_UNIT(*)PLANE_ANGLE_UNIT());
#617=UNCERTAINTY_MEASURE_WITH_UNIT(LENGTH_MEASURE(1.E-2),#611,'closure',
'Maximum model space distance between geometric entities at asserted connectivities');
#618=(GEOMETRIC_REPRESENTATION_CONTEXT(3)GLOBAL_UNCERTAINTY_ASSIGNED_CONTEXT((
#617))GLOBAL_UNIT_ASSIGNED_CONTEXT((#611,#615,#616))REPRESENTATION_CONTEXT
('ID1','3'));
#620=APPLICATION_CONTEXT(
'CONFIGURATION CONTROLLED 3D DESIGNS OF MECHANICAL PARTS AND ASSEMBLIES');
#621=APPLICATION_PROTOCOL_DEFINITION('international standard',
'config_control_design',1994,#620);
#622=DESIGN_CONTEXT('',#620,'design');
#623=MECHANICAL_CONTEXT('',#620,'mechanical');
#624=PRODUCT('20003582P01','20003582P01','NOT SPECIFIED',(#623));
#625=PRODUCT_DEFINITION_FORMATION_WITH_SPECIFIED_SOURCE('13','LAST_VERSION',
#624,.MADE.);
#629=PRODUCT_CATEGORY('part','');
#630=PRODUCT_RELATED_PRODUCT_CATEGORY('detail','',(#624));
#631=PRODUCT_CATEGORY_RELATIONSHIP('','',#629,#630);
#632=SECURITY_CLASSIFICATION_LEVEL('unclassified');
#633=SECURITY_CLASSIFICATION('','',#632);
#634=CC_DESIGN_SECURITY_CLASSIFICATION(#633,(#625));
#635=APPROVAL_STATUS('approved');
#636=APPROVAL(#635,'');
#637=CC_DESIGN_APPROVAL(#636,(#633,#625,#626));
#638=CALENDAR_DATE(123,8,5);
#639=COORDINATED_UNIVERSAL_TIME_OFFSET(5,30,.AHEAD.);
#640=LOCAL_TIME(10,25,6.E0,#639);
#641=DATE_AND_TIME(#638,#640);
#642=APPROVAL_DATE_TIME(#641,#636);
#643=DATE_TIME_ROLE('creation_date');
#644=CC_DESIGN_DATE_AND_TIME_ASSIGNMENT(#641,#643,(#626));
#645=DATE_TIME_ROLE('classification_date');
#646=CC_DESIGN_DATE_AND_TIME_ASSIGNMENT(#641,#645,(#633));
#647=PERSON('UNSPECIFIED','UNSPECIFIED',$,$,$,$);
#648=ORGANIZATION('UNSPECIFIED','UNSPECIFIED','UNSPECIFIED');
#649=PERSON_AND_ORGANIZATION(#647,#648);
#650=APPROVAL_ROLE('approver');
#651=APPROVAL_PERSON_ORGANIZATION(#649,#636,#650);
#652=PERSON_AND_ORGANIZATION_ROLE('creator');
#653=CC_DESIGN_PERSON_AND_ORGANIZATION_ASSIGNMENT(#649,#652,(#625,#626));
#654=PERSON_AND_ORGANIZATION_ROLE('design_supplier');
#655=CC_DESIGN_PERSON_AND_ORGANIZATION_ASSIGNMENT(#649,#654,(#625));
#656=PERSON_AND_ORGANIZATION_ROLE('classification_officer');
#657=CC_DESIGN_PERSON_AND_ORGANIZATION_ASSIGNMENT(#649,#656,(#633));
#658=PERSON_AND_ORGANIZATION_ROLE('design_owner');
#659=CC_DESIGN_PERSON_AND_ORGANIZATION_ASSIGNMENT(#649,#658,(#624));
#45=CIRCLE('',#44,2.E-1);
#54=CIRCLE('',#53,1.E0);
#63=CIRCLE('',#62,2.E-1);
#72=CIRCLE('',#71,1.E0);
#282=EDGE_CURVE('',#216,#218,#8,.T.);
#284=EDGE_CURVE('',#216,#222,#4,.T.);
#286=EDGE_CURVE('',#222,#224,#32,.T.);
#288=EDGE_CURVE('',#218,#224,#20,.T.);
#299=EDGE_CURVE('',#218,#234,#12,.T.);
#301=EDGE_CURVE('',#232,#234,#16,.T.);
#303=EDGE_CURVE('',#216,#232,#67,.T.);
#314=EDGE_CURVE('',#224,#240,#24,.T.);
#316=EDGE_CURVE('',#234,#240,#28,.T.);
#328=EDGE_CURVE('',#222,#238,#36,.T.);
#330=EDGE_CURVE('',#238,#240,#40,.T.);
#341=EDGE_CURVE('',#221,#222,#45,.T.);
#343=EDGE_CURVE('',#221,#237,#49,.T.);
#345=EDGE_CURVE('',#237,#238,#54,.T.);
#356=EDGE_CURVE('',#215,#216,#63,.T.);
#358=EDGE_CURVE('',#215,#221,#58,.T.);
#372=EDGE_CURVE('',#231,#232,#72,.T.);
#374=EDGE_CURVE('',#215,#231,#148,.T.);
#385=EDGE_CURVE('',#232,#238,#80,.T.);
#388=EDGE_CURVE('',#231,#237,#76,.T.);
#410=EDGE_CURVE('',#248,#237,#116,.T.);
#412=EDGE_CURVE('',#247,#248,#184,.T.);
#414=EDGE_CURVE('',#231,#247,#152,.T.);
#425=EDGE_CURVE('',#259,#268,#84,.T.);
#427=EDGE_CURVE('',#268,#272,#88,.T.);
#429=EDGE_CURVE('',#272,#228,#92,.T.);
#431=EDGE_CURVE('',#228,#244,#96,.T.);
#433=EDGE_CURVE('',#244,#275,#100,.T.);
#435=EDGE_CURVE('',#275,#263,#104,.T.);
#437=EDGE_CURVE('',#263,#252,#108,.T.);
#439=EDGE_CURVE('',#252,#248,#112,.T.);
#443=EDGE_CURVE('',#221,#255,#120,.T.);
#445=EDGE_CURVE('',#255,#259,#124,.T.);
#455=EDGE_CURVE('',#267,#260,#136,.T.);
#457=EDGE_CURVE('',#267,#268,#128,.T.);
#460=EDGE_CURVE('',#259,#260,#132,.T.);
#471=EDGE_CURVE('',#260,#256,#140,.T.);
#473=EDGE_CURVE('',#256,#215,#144,.T.);
#477=EDGE_CURVE('',#247,#251,#156,.T.);
#479=EDGE_CURVE('',#251,#264,#160,.T.);
#481=EDGE_CURVE('',#264,#276,#164,.T.);
#483=EDGE_CURVE('',#276,#243,#168,.T.);
#485=EDGE_CURVE('',#227,#243,#204,.T.);
#487=EDGE_CURVE('',#227,#271,#172,.T.);
#489=EDGE_CURVE('',#271,#267,#176,.T.);
#500=EDGE_CURVE('',#255,#256,#180,.T.);
#527=EDGE_CURVE('',#251,#252,#188,.T.);
#540=EDGE_CURVE('',#263,#264,#192,.T.);
#553=EDGE_CURVE('',#275,#276,#196,.T.);
#566=EDGE_CURVE('',#243,#244,#200,.T.);
#576=EDGE_CURVE('',#227,#228,#208,.T.);
#590=EDGE_CURVE('',#271,#272,#212,.T.);
#609=CLOSED_SHELL('',(#292,#307,#321,#335,#350,#364,#378,#392,#404,#419,#449,
#464,#493,#506,#518,#531,#544,#557,#570,#583,#596,#608));
#610=MANIFOLD_SOLID_BREP('',#609);
#611=(LENGTH_UNIT()NAMED_UNIT(*)SI_UNIT(.MILLI.,.METRE.));
#613=(NAMED_UNIT(*)PLANE_ANGLE_UNIT()SI_UNIT($,.RADIAN.));
#616=(NAMED_UNIT(*)SI_UNIT($,.STERADIAN.)SOLID_ANGLE_UNIT());
#619=ADVANCED_BREP_SHAPE_REPRESENTATION('',(#610),#618);
#626=PRODUCT_DEFINITION('design','',#625,#622);
#627=PRODUCT_DEFINITION_SHAPE('','SHAPE FOR 20003582P01.',#626);
#628=SHAPE_DEFINITION_REPRESENTATION(#627,#619);
ENDSEC;
END-ISO-10303-21;
