ISO-10303-21;
HEADER;
FILE_DESCRIPTION((''),'2;1');
FILE_NAME('20006654P01','2023-05-04T11:37:41',('sivasanker.y'),(''),
'CREO PARAMETRIC BY PTC INC, 2021284','CREO PARAMETRIC BY PTC INC, 2021284','');
FILE_SCHEMA(('CONFIG_CONTROL_DESIGN'));
ENDSEC;
DATA;
#1=DIRECTION('',(0.E0,0.E0,1.E0));
#2=VECTOR('',#1,3.E1);
#3=CARTESIAN_POINT('',(6.73E1,1.625569686326E-14,0.E0));
#4=LINE('',#3,#2);
#5=DIRECTION('',(0.E0,1.E0,0.E0));
#6=VECTOR('',#5,8.9E0);
#7=CARTESIAN_POINT('',(6.73E1,1.637E2,0.E0));
#8=LINE('',#7,#6);
#9=DIRECTION('',(-1.E0,0.E0,0.E0));
#10=VECTOR('',#9,6.73E1);
#11=CARTESIAN_POINT('',(6.73E1,1.726E2,0.E0));
#12=LINE('',#11,#10);
#13=DIRECTION('',(0.E0,-1.E0,0.E0));
#14=VECTOR('',#13,1.726E2);
#15=CARTESIAN_POINT('',(0.E0,1.726E2,0.E0));
#16=LINE('',#15,#14);
#17=DIRECTION('',(1.E0,0.E0,0.E0));
#18=VECTOR('',#17,6.73E1);
#19=CARTESIAN_POINT('',(0.E0,0.E0,0.E0));
#20=LINE('',#19,#18);
#21=DIRECTION('',(0.E0,1.E0,0.E0));
#22=VECTOR('',#21,8.9E0);
#23=CARTESIAN_POINT('',(6.73E1,1.625569686326E-14,0.E0));
#24=LINE('',#23,#22);
#25=DIRECTION('',(-1.E0,0.E0,0.E0));
#26=VECTOR('',#25,8.E-1);
#27=CARTESIAN_POINT('',(6.73E1,8.9E0,0.E0));
#28=LINE('',#27,#26);
#29=DIRECTION('',(0.E0,-1.E0,0.E0));
#30=VECTOR('',#29,8.1E0);
#31=CARTESIAN_POINT('',(6.65E1,8.9E0,0.E0));
#32=LINE('',#31,#30);
#33=DIRECTION('',(-1.E0,0.E0,0.E0));
#34=VECTOR('',#33,6.57E1);
#35=CARTESIAN_POINT('',(6.65E1,8.E-1,0.E0));
#36=LINE('',#35,#34);
#37=DIRECTION('',(0.E0,1.E0,0.E0));
#38=VECTOR('',#37,1.71E2);
#39=CARTESIAN_POINT('',(8.E-1,8.E-1,0.E0));
#40=LINE('',#39,#38);
#41=DIRECTION('',(1.E0,0.E0,0.E0));
#42=VECTOR('',#41,6.57E1);
#43=CARTESIAN_POINT('',(8.E-1,1.718E2,0.E0));
#44=LINE('',#43,#42);
#45=DIRECTION('',(0.E0,-1.E0,0.E0));
#46=VECTOR('',#45,8.1E0);
#47=CARTESIAN_POINT('',(6.65E1,1.718E2,0.E0));
#48=LINE('',#47,#46);
#49=DIRECTION('',(0.E0,0.E0,1.E0));
#50=VECTOR('',#49,3.E1);
#51=CARTESIAN_POINT('',(6.73E1,1.637E2,0.E0));
#52=LINE('',#51,#50);
#53=DIRECTION('',(0.E0,-1.E0,0.E0));
#54=VECTOR('',#53,8.9E0);
#55=CARTESIAN_POINT('',(6.73E1,1.726E2,3.E1));
#56=LINE('',#55,#54);
#57=DIRECTION('',(-1.E0,0.E0,0.E0));
#58=VECTOR('',#57,8.E-1);
#59=CARTESIAN_POINT('',(6.73E1,1.637E2,3.E1));
#60=LINE('',#59,#58);
#61=DIRECTION('',(0.E0,1.E0,0.E0));
#62=VECTOR('',#61,8.1E0);
#63=CARTESIAN_POINT('',(6.65E1,1.637E2,3.E1));
#64=LINE('',#63,#62);
#65=DIRECTION('',(-1.E0,0.E0,0.E0));
#66=VECTOR('',#65,6.57E1);
#67=CARTESIAN_POINT('',(6.65E1,1.718E2,3.E1));
#68=LINE('',#67,#66);
#69=DIRECTION('',(0.E0,-1.E0,0.E0));
#70=VECTOR('',#69,1.71E2);
#71=CARTESIAN_POINT('',(8.E-1,1.718E2,3.E1));
#72=LINE('',#71,#70);
#73=DIRECTION('',(1.E0,0.E0,0.E0));
#74=VECTOR('',#73,6.57E1);
#75=CARTESIAN_POINT('',(8.E-1,8.E-1,3.E1));
#76=LINE('',#75,#74);
#77=DIRECTION('',(0.E0,1.E0,0.E0));
#78=VECTOR('',#77,8.1E0);
#79=CARTESIAN_POINT('',(6.65E1,8.E-1,3.E1));
#80=LINE('',#79,#78);
#81=DIRECTION('',(0.E0,-1.E0,0.E0));
#82=VECTOR('',#81,8.9E0);
#83=CARTESIAN_POINT('',(6.73E1,8.9E0,3.E1));
#84=LINE('',#83,#82);
#85=DIRECTION('',(-1.E0,0.E0,0.E0));
#86=VECTOR('',#85,6.73E1);
#87=CARTESIAN_POINT('',(6.73E1,2.395324316733E-14,3.E1));
#88=LINE('',#87,#86);
#89=DIRECTION('',(0.E0,1.E0,0.E0));
#90=VECTOR('',#89,1.726E2);
#91=CARTESIAN_POINT('',(0.E0,0.E0,3.E1));
#92=LINE('',#91,#90);
#93=DIRECTION('',(1.E0,0.E0,0.E0));
#94=VECTOR('',#93,6.73E1);
#95=CARTESIAN_POINT('',(0.E0,1.726E2,3.E1));
#96=LINE('',#95,#94);
#97=DIRECTION('',(-1.E0,0.E0,0.E0));
#98=VECTOR('',#97,8.E-1);
#99=CARTESIAN_POINT('',(6.73E1,1.637E2,0.E0));
#100=LINE('',#99,#98);
#101=DIRECTION('',(0.E0,0.E0,1.E0));
#102=VECTOR('',#101,3.E1);
#103=CARTESIAN_POINT('',(6.65E1,1.718E2,0.E0));
#104=LINE('',#103,#102);
#105=DIRECTION('',(0.E0,0.E0,1.E0));
#106=VECTOR('',#105,3.E1);
#107=CARTESIAN_POINT('',(6.65E1,1.637E2,0.E0));
#108=LINE('',#107,#106);
#109=DIRECTION('',(0.E0,0.E0,1.E0));
#110=VECTOR('',#109,3.E1);
#111=CARTESIAN_POINT('',(8.E-1,1.718E2,0.E0));
#112=LINE('',#111,#110);
#113=DIRECTION('',(0.E0,0.E0,1.E0));
#114=VECTOR('',#113,3.E1);
#115=CARTESIAN_POINT('',(8.E-1,8.E-1,0.E0));
#116=LINE('',#115,#114);
#117=DIRECTION('',(0.E0,0.E0,1.E0));
#118=VECTOR('',#117,3.E1);
#119=CARTESIAN_POINT('',(6.65E1,8.E-1,0.E0));
#120=LINE('',#119,#118);
#121=DIRECTION('',(0.E0,0.E0,1.E0));
#122=VECTOR('',#121,3.E1);
#123=CARTESIAN_POINT('',(6.73E1,8.9E0,0.E0));
#124=LINE('',#123,#122);
#125=DIRECTION('',(-1.E0,0.E0,0.E0));
#126=VECTOR('',#125,8.E-1);
#127=CARTESIAN_POINT('',(6.73E1,8.9E0,3.E1));
#128=LINE('',#127,#126);
#129=DIRECTION('',(0.E0,0.E0,1.E0));
#130=VECTOR('',#129,3.E1);
#131=CARTESIAN_POINT('',(6.65E1,8.9E0,0.E0));
#132=LINE('',#131,#130);
#133=DIRECTION('',(0.E0,0.E0,1.E0));
#134=VECTOR('',#133,3.E1);
#135=CARTESIAN_POINT('',(0.E0,0.E0,0.E0));
#136=LINE('',#135,#134);
#137=DIRECTION('',(0.E0,0.E0,1.E0));
#138=VECTOR('',#137,3.E1);
#139=CARTESIAN_POINT('',(0.E0,1.726E2,0.E0));
#140=LINE('',#139,#138);
#141=DIRECTION('',(0.E0,0.E0,1.E0));
#142=VECTOR('',#141,3.E1);
#143=CARTESIAN_POINT('',(6.73E1,1.726E2,0.E0));
#144=LINE('',#143,#142);
#145=CARTESIAN_POINT('',(6.73E1,1.637E2,0.E0));
#146=CARTESIAN_POINT('',(6.73E1,1.637E2,3.E1));
#147=VERTEX_POINT('',#145);
#148=VERTEX_POINT('',#146);
#149=CARTESIAN_POINT('',(6.73E1,8.9E0,0.E0));
#150=CARTESIAN_POINT('',(6.73E1,8.9E0,3.E1));
#151=VERTEX_POINT('',#149);
#152=VERTEX_POINT('',#150);
#153=CARTESIAN_POINT('',(6.65E1,1.637E2,0.E0));
#154=CARTESIAN_POINT('',(6.65E1,1.637E2,3.E1));
#155=VERTEX_POINT('',#153);
#156=VERTEX_POINT('',#154);
#157=CARTESIAN_POINT('',(6.65E1,8.9E0,0.E0));
#158=CARTESIAN_POINT('',(6.65E1,8.9E0,3.E1));
#159=VERTEX_POINT('',#157);
#160=VERTEX_POINT('',#158);
#161=CARTESIAN_POINT('',(6.73E1,1.625569686326E-14,0.E0));
#162=CARTESIAN_POINT('',(6.73E1,2.395324316733E-14,3.E1));
#163=VERTEX_POINT('',#161);
#164=VERTEX_POINT('',#162);
#165=CARTESIAN_POINT('',(0.E0,0.E0,0.E0));
#166=CARTESIAN_POINT('',(0.E0,0.E0,3.E1));
#167=VERTEX_POINT('',#165);
#168=VERTEX_POINT('',#166);
#169=CARTESIAN_POINT('',(6.73E1,1.726E2,0.E0));
#170=CARTESIAN_POINT('',(6.73E1,1.726E2,3.E1));
#171=VERTEX_POINT('',#169);
#172=VERTEX_POINT('',#170);
#173=CARTESIAN_POINT('',(6.65E1,8.E-1,0.E0));
#174=CARTESIAN_POINT('',(6.65E1,8.E-1,3.E1));
#175=VERTEX_POINT('',#173);
#176=VERTEX_POINT('',#174);
#177=CARTESIAN_POINT('',(6.65E1,1.718E2,0.E0));
#178=CARTESIAN_POINT('',(6.65E1,1.718E2,3.E1));
#179=VERTEX_POINT('',#177);
#180=VERTEX_POINT('',#178);
#181=CARTESIAN_POINT('',(8.E-1,8.E-1,0.E0));
#182=CARTESIAN_POINT('',(8.E-1,8.E-1,3.E1));
#183=VERTEX_POINT('',#181);
#184=VERTEX_POINT('',#182);
#185=CARTESIAN_POINT('',(0.E0,1.726E2,0.E0));
#186=CARTESIAN_POINT('',(0.E0,1.726E2,3.E1));
#187=VERTEX_POINT('',#185);
#188=VERTEX_POINT('',#186);
#189=CARTESIAN_POINT('',(8.E-1,1.718E2,0.E0));
#190=CARTESIAN_POINT('',(8.E-1,1.718E2,3.E1));
#191=VERTEX_POINT('',#189);
#192=VERTEX_POINT('',#190);
#193=CARTESIAN_POINT('',(6.73E1,2.8E0,0.E0));
#194=DIRECTION('',(1.E0,0.E0,0.E0));
#195=DIRECTION('',(0.E0,1.E0,0.E0));
#196=AXIS2_PLACEMENT_3D('',#193,#194,#195);
#197=PLANE('',#196);
#199=ORIENTED_EDGE('',*,*,#198,.F.);
#201=ORIENTED_EDGE('',*,*,#200,.T.);
#203=ORIENTED_EDGE('',*,*,#202,.F.);
#205=ORIENTED_EDGE('',*,*,#204,.F.);
#206=EDGE_LOOP('',(#199,#201,#203,#205));
#207=FACE_OUTER_BOUND('',#206,.F.);
#208=ADVANCED_FACE('',(#207),#197,.T.);
#209=CARTESIAN_POINT('',(6.69E1,1.6675E2,0.E0));
#210=DIRECTION('',(0.E0,0.E0,-1.E0));
#211=DIRECTION('',(0.E0,1.E0,0.E0));
#212=AXIS2_PLACEMENT_3D('',#209,#210,#211);
#213=PLANE('',#212);
#215=ORIENTED_EDGE('',*,*,#214,.T.);
#217=ORIENTED_EDGE('',*,*,#216,.T.);
#219=ORIENTED_EDGE('',*,*,#218,.T.);
#221=ORIENTED_EDGE('',*,*,#220,.T.);
#222=ORIENTED_EDGE('',*,*,#198,.T.);
#224=ORIENTED_EDGE('',*,*,#223,.T.);
#226=ORIENTED_EDGE('',*,*,#225,.T.);
#228=ORIENTED_EDGE('',*,*,#227,.T.);
#230=ORIENTED_EDGE('',*,*,#229,.T.);
#232=ORIENTED_EDGE('',*,*,#231,.T.);
#234=ORIENTED_EDGE('',*,*,#233,.T.);
#236=ORIENTED_EDGE('',*,*,#235,.F.);
#237=EDGE_LOOP('',(#215,#217,#219,#221,#222,#224,#226,#228,#230,#232,#234,
#236));
#238=FACE_OUTER_BOUND('',#237,.F.);
#239=ADVANCED_FACE('',(#238),#213,.T.);
#240=CARTESIAN_POINT('',(6.73E1,1.637E2,0.E0));
#241=DIRECTION('',(1.E0,0.E0,0.E0));
#242=DIRECTION('',(0.E0,1.E0,0.E0));
#243=AXIS2_PLACEMENT_3D('',#240,#241,#242);
#244=PLANE('',#243);
#246=ORIENTED_EDGE('',*,*,#245,.F.);
#248=ORIENTED_EDGE('',*,*,#247,.F.);
#249=ORIENTED_EDGE('',*,*,#214,.F.);
#251=ORIENTED_EDGE('',*,*,#250,.T.);
#252=EDGE_LOOP('',(#246,#248,#249,#251));
#253=FACE_OUTER_BOUND('',#252,.F.);
#254=ADVANCED_FACE('',(#253),#244,.T.);
#255=CARTESIAN_POINT('',(6.69E1,5.85E0,3.E1));
#256=DIRECTION('',(0.E0,0.E0,-1.E0));
#257=DIRECTION('',(0.E0,1.E0,0.E0));
#258=AXIS2_PLACEMENT_3D('',#255,#256,#257);
#259=PLANE('',#258);
#260=ORIENTED_EDGE('',*,*,#245,.T.);
#262=ORIENTED_EDGE('',*,*,#261,.T.);
#264=ORIENTED_EDGE('',*,*,#263,.T.);
#266=ORIENTED_EDGE('',*,*,#265,.T.);
#268=ORIENTED_EDGE('',*,*,#267,.T.);
#270=ORIENTED_EDGE('',*,*,#269,.T.);
#272=ORIENTED_EDGE('',*,*,#271,.T.);
#274=ORIENTED_EDGE('',*,*,#273,.F.);
#275=ORIENTED_EDGE('',*,*,#202,.T.);
#277=ORIENTED_EDGE('',*,*,#276,.T.);
#279=ORIENTED_EDGE('',*,*,#278,.T.);
#281=ORIENTED_EDGE('',*,*,#280,.T.);
#282=EDGE_LOOP('',(#260,#262,#264,#266,#268,#270,#272,#274,#275,#277,#279,
#281));
#283=FACE_OUTER_BOUND('',#282,.F.);
#284=ADVANCED_FACE('',(#283),#259,.F.);
#285=CARTESIAN_POINT('',(6.69E1,1.637E2,1.5E1));
#286=DIRECTION('',(0.E0,1.E0,0.E0));
#287=DIRECTION('',(0.E0,0.E0,1.E0));
#288=AXIS2_PLACEMENT_3D('',#285,#286,#287);
#289=PLANE('',#288);
#290=ORIENTED_EDGE('',*,*,#250,.F.);
#291=ORIENTED_EDGE('',*,*,#235,.T.);
#293=ORIENTED_EDGE('',*,*,#292,.T.);
#294=ORIENTED_EDGE('',*,*,#261,.F.);
#295=EDGE_LOOP('',(#290,#291,#293,#294));
#296=FACE_OUTER_BOUND('',#295,.F.);
#297=ADVANCED_FACE('',(#296),#289,.F.);
#298=CARTESIAN_POINT('',(6.65E1,1.637E2,0.E0));
#299=DIRECTION('',(1.E0,0.E0,0.E0));
#300=DIRECTION('',(0.E0,1.E0,0.E0));
#301=AXIS2_PLACEMENT_3D('',#298,#299,#300);
#302=PLANE('',#301);
#303=ORIENTED_EDGE('',*,*,#233,.F.);
#305=ORIENTED_EDGE('',*,*,#304,.T.);
#306=ORIENTED_EDGE('',*,*,#263,.F.);
#307=ORIENTED_EDGE('',*,*,#292,.F.);
#308=EDGE_LOOP('',(#303,#305,#306,#307));
#309=FACE_OUTER_BOUND('',#308,.F.);
#310=ADVANCED_FACE('',(#309),#302,.F.);
#311=CARTESIAN_POINT('',(6.45E1,1.718E2,0.E0));
#312=DIRECTION('',(0.E0,1.E0,0.E0));
#313=DIRECTION('',(-1.E0,0.E0,0.E0));
#314=AXIS2_PLACEMENT_3D('',#311,#312,#313);
#315=PLANE('',#314);
#316=ORIENTED_EDGE('',*,*,#231,.F.);
#318=ORIENTED_EDGE('',*,*,#317,.T.);
#319=ORIENTED_EDGE('',*,*,#265,.F.);
#320=ORIENTED_EDGE('',*,*,#304,.F.);
#321=EDGE_LOOP('',(#316,#318,#319,#320));
#322=FACE_OUTER_BOUND('',#321,.F.);
#323=ADVANCED_FACE('',(#322),#315,.F.);
#324=CARTESIAN_POINT('',(8.E-1,1.698E2,0.E0));
#325=DIRECTION('',(-1.E0,0.E0,0.E0));
#326=DIRECTION('',(0.E0,-1.E0,0.E0));
#327=AXIS2_PLACEMENT_3D('',#324,#325,#326);
#328=PLANE('',#327);
#329=ORIENTED_EDGE('',*,*,#229,.F.);
#331=ORIENTED_EDGE('',*,*,#330,.T.);
#332=ORIENTED_EDGE('',*,*,#267,.F.);
#333=ORIENTED_EDGE('',*,*,#317,.F.);
#334=EDGE_LOOP('',(#329,#331,#332,#333));
#335=FACE_OUTER_BOUND('',#334,.F.);
#336=ADVANCED_FACE('',(#335),#328,.F.);
#337=CARTESIAN_POINT('',(2.8E0,8.E-1,0.E0));
#338=DIRECTION('',(0.E0,-1.E0,0.E0));
#339=DIRECTION('',(1.E0,0.E0,0.E0));
#340=AXIS2_PLACEMENT_3D('',#337,#338,#339);
#341=PLANE('',#340);
#342=ORIENTED_EDGE('',*,*,#227,.F.);
#344=ORIENTED_EDGE('',*,*,#343,.T.);
#345=ORIENTED_EDGE('',*,*,#269,.F.);
#346=ORIENTED_EDGE('',*,*,#330,.F.);
#347=EDGE_LOOP('',(#342,#344,#345,#346));
#348=FACE_OUTER_BOUND('',#347,.F.);
#349=ADVANCED_FACE('',(#348),#341,.F.);
#350=CARTESIAN_POINT('',(6.65E1,2.8E0,0.E0));
#351=DIRECTION('',(1.E0,0.E0,0.E0));
#352=DIRECTION('',(0.E0,1.E0,0.E0));
#353=AXIS2_PLACEMENT_3D('',#350,#351,#352);
#354=PLANE('',#353);
#355=ORIENTED_EDGE('',*,*,#271,.F.);
#356=ORIENTED_EDGE('',*,*,#343,.F.);
#357=ORIENTED_EDGE('',*,*,#225,.F.);
#359=ORIENTED_EDGE('',*,*,#358,.T.);
#360=EDGE_LOOP('',(#355,#356,#357,#359));
#361=FACE_OUTER_BOUND('',#360,.F.);
#362=ADVANCED_FACE('',(#361),#354,.F.);
#363=CARTESIAN_POINT('',(6.69E1,8.9E0,1.5E1));
#364=DIRECTION('',(0.E0,1.E0,0.E0));
#365=DIRECTION('',(0.E0,0.E0,1.E0));
#366=AXIS2_PLACEMENT_3D('',#363,#364,#365);
#367=PLANE('',#366);
#368=ORIENTED_EDGE('',*,*,#204,.T.);
#369=ORIENTED_EDGE('',*,*,#273,.T.);
#370=ORIENTED_EDGE('',*,*,#358,.F.);
#371=ORIENTED_EDGE('',*,*,#223,.F.);
#372=EDGE_LOOP('',(#368,#369,#370,#371));
#373=FACE_OUTER_BOUND('',#372,.F.);
#374=ADVANCED_FACE('',(#373),#367,.T.);
#375=CARTESIAN_POINT('',(2.8E0,0.E0,0.E0));
#376=DIRECTION('',(0.E0,-1.E0,0.E0));
#377=DIRECTION('',(1.E0,0.E0,0.E0));
#378=AXIS2_PLACEMENT_3D('',#375,#376,#377);
#379=PLANE('',#378);
#380=ORIENTED_EDGE('',*,*,#276,.F.);
#381=ORIENTED_EDGE('',*,*,#200,.F.);
#382=ORIENTED_EDGE('',*,*,#220,.F.);
#384=ORIENTED_EDGE('',*,*,#383,.T.);
#385=EDGE_LOOP('',(#380,#381,#382,#384));
#386=FACE_OUTER_BOUND('',#385,.F.);
#387=ADVANCED_FACE('',(#386),#379,.T.);
#388=CARTESIAN_POINT('',(0.E0,1.698E2,0.E0));
#389=DIRECTION('',(-1.E0,0.E0,0.E0));
#390=DIRECTION('',(0.E0,-1.E0,0.E0));
#391=AXIS2_PLACEMENT_3D('',#388,#389,#390);
#392=PLANE('',#391);
#393=ORIENTED_EDGE('',*,*,#278,.F.);
#394=ORIENTED_EDGE('',*,*,#383,.F.);
#395=ORIENTED_EDGE('',*,*,#218,.F.);
#397=ORIENTED_EDGE('',*,*,#396,.T.);
#398=EDGE_LOOP('',(#393,#394,#395,#397));
#399=FACE_OUTER_BOUND('',#398,.F.);
#400=ADVANCED_FACE('',(#399),#392,.T.);
#401=CARTESIAN_POINT('',(6.45E1,1.726E2,0.E0));
#402=DIRECTION('',(0.E0,1.E0,0.E0));
#403=DIRECTION('',(-1.E0,0.E0,0.E0));
#404=AXIS2_PLACEMENT_3D('',#401,#402,#403);
#405=PLANE('',#404);
#406=ORIENTED_EDGE('',*,*,#280,.F.);
#407=ORIENTED_EDGE('',*,*,#396,.F.);
#408=ORIENTED_EDGE('',*,*,#216,.F.);
#409=ORIENTED_EDGE('',*,*,#247,.T.);
#410=EDGE_LOOP('',(#406,#407,#408,#409));
#411=FACE_OUTER_BOUND('',#410,.F.);
#412=ADVANCED_FACE('',(#411),#405,.T.);
#416=DIMENSIONAL_EXPONENTS(0.E0,0.E0,0.E0,0.E0,0.E0,0.E0,0.E0);
#418=PLANE_ANGLE_MEASURE_WITH_UNIT(PLANE_ANGLE_MEASURE(1.745329251994E-2),#417);
#419=(CONVERSION_BASED_UNIT('DEGREE',#418)NAMED_UNIT(*)PLANE_ANGLE_UNIT());
#421=UNCERTAINTY_MEASURE_WITH_UNIT(LENGTH_MEASURE(1.E-2),#415,'closure',
'Maximum model space distance between geometric entities at asserted connectivities');
#422=(GEOMETRIC_REPRESENTATION_CONTEXT(3)GLOBAL_UNCERTAINTY_ASSIGNED_CONTEXT((
#421))GLOBAL_UNIT_ASSIGNED_CONTEXT((#415,#419,#420))REPRESENTATION_CONTEXT
('ID1','3'));
#424=APPLICATION_CONTEXT(
'CONFIGURATION CONTROLLED 3D DESIGNS OF MECHANICAL PARTS AND ASSEMBLIES');
#425=APPLICATION_PROTOCOL_DEFINITION('international standard',
'config_control_design',1994,#424);
#426=DESIGN_CONTEXT('',#424,'design');
#427=MECHANICAL_CONTEXT('',#424,'mechanical');
#428=PRODUCT('20006654P01','20006654P01','NOT SPECIFIED',(#427));
#429=PRODUCT_DEFINITION_FORMATION_WITH_SPECIFIED_SOURCE('10','LAST_VERSION',
#428,.MADE.);
#433=PRODUCT_CATEGORY('part','');
#434=PRODUCT_RELATED_PRODUCT_CATEGORY('detail','',(#428));
#435=PRODUCT_CATEGORY_RELATIONSHIP('','',#433,#434);
#436=SECURITY_CLASSIFICATION_LEVEL('unclassified');
#437=SECURITY_CLASSIFICATION('','',#436);
#438=CC_DESIGN_SECURITY_CLASSIFICATION(#437,(#429));
#439=APPROVAL_STATUS('approved');
#440=APPROVAL(#439,'');
#441=CC_DESIGN_APPROVAL(#440,(#437,#429,#430));
#442=CALENDAR_DATE(123,4,5);
#443=COORDINATED_UNIVERSAL_TIME_OFFSET(5,30,.AHEAD.);
#444=LOCAL_TIME(11,37,4.1E1,#443);
#445=DATE_AND_TIME(#442,#444);
#446=APPROVAL_DATE_TIME(#445,#440);
#447=DATE_TIME_ROLE('creation_date');
#448=CC_DESIGN_DATE_AND_TIME_ASSIGNMENT(#445,#447,(#430));
#449=DATE_TIME_ROLE('classification_date');
#450=CC_DESIGN_DATE_AND_TIME_ASSIGNMENT(#445,#449,(#437));
#451=PERSON('UNSPECIFIED','UNSPECIFIED',$,$,$,$);
#452=ORGANIZATION('UNSPECIFIED','UNSPECIFIED','UNSPECIFIED');
#453=PERSON_AND_ORGANIZATION(#451,#452);
#454=APPROVAL_ROLE('approver');
#455=APPROVAL_PERSON_ORGANIZATION(#453,#440,#454);
#456=PERSON_AND_ORGANIZATION_ROLE('creator');
#457=CC_DESIGN_PERSON_AND_ORGANIZATION_ASSIGNMENT(#453,#456,(#429,#430));
#458=PERSON_AND_ORGANIZATION_ROLE('design_supplier');
#459=CC_DESIGN_PERSON_AND_ORGANIZATION_ASSIGNMENT(#453,#458,(#429));
#460=PERSON_AND_ORGANIZATION_ROLE('classification_officer');
#461=CC_DESIGN_PERSON_AND_ORGANIZATION_ASSIGNMENT(#453,#460,(#437));
#462=PERSON_AND_ORGANIZATION_ROLE('design_owner');
#463=CC_DESIGN_PERSON_AND_ORGANIZATION_ASSIGNMENT(#453,#462,(#428));
#198=EDGE_CURVE('',#163,#151,#24,.T.);
#200=EDGE_CURVE('',#163,#164,#4,.T.);
#202=EDGE_CURVE('',#152,#164,#84,.T.);
#204=EDGE_CURVE('',#151,#152,#124,.T.);
#214=EDGE_CURVE('',#147,#171,#8,.T.);
#216=EDGE_CURVE('',#171,#187,#12,.T.);
#218=EDGE_CURVE('',#187,#167,#16,.T.);
#220=EDGE_CURVE('',#167,#163,#20,.T.);
#223=EDGE_CURVE('',#151,#159,#28,.T.);
#225=EDGE_CURVE('',#159,#175,#32,.T.);
#227=EDGE_CURVE('',#175,#183,#36,.T.);
#229=EDGE_CURVE('',#183,#191,#40,.T.);
#231=EDGE_CURVE('',#191,#179,#44,.T.);
#233=EDGE_CURVE('',#179,#155,#48,.T.);
#235=EDGE_CURVE('',#147,#155,#100,.T.);
#245=EDGE_CURVE('',#172,#148,#56,.T.);
#247=EDGE_CURVE('',#171,#172,#144,.T.);
#250=EDGE_CURVE('',#147,#148,#52,.T.);
#261=EDGE_CURVE('',#148,#156,#60,.T.);
#263=EDGE_CURVE('',#156,#180,#64,.T.);
#265=EDGE_CURVE('',#180,#192,#68,.T.);
#267=EDGE_CURVE('',#192,#184,#72,.T.);
#269=EDGE_CURVE('',#184,#176,#76,.T.);
#271=EDGE_CURVE('',#176,#160,#80,.T.);
#273=EDGE_CURVE('',#152,#160,#128,.T.);
#276=EDGE_CURVE('',#164,#168,#88,.T.);
#278=EDGE_CURVE('',#168,#188,#92,.T.);
#280=EDGE_CURVE('',#188,#172,#96,.T.);
#292=EDGE_CURVE('',#155,#156,#108,.T.);
#304=EDGE_CURVE('',#179,#180,#104,.T.);
#317=EDGE_CURVE('',#191,#192,#112,.T.);
#330=EDGE_CURVE('',#183,#184,#116,.T.);
#343=EDGE_CURVE('',#175,#176,#120,.T.);
#358=EDGE_CURVE('',#159,#160,#132,.T.);
#383=EDGE_CURVE('',#167,#168,#136,.T.);
#396=EDGE_CURVE('',#187,#188,#140,.T.);
#413=CLOSED_SHELL('',(#208,#239,#254,#284,#297,#310,#323,#336,#349,#362,#374,
#387,#400,#412));
#414=MANIFOLD_SOLID_BREP('',#413);
#415=(LENGTH_UNIT()NAMED_UNIT(*)SI_UNIT(.MILLI.,.METRE.));
#417=(NAMED_UNIT(*)PLANE_ANGLE_UNIT()SI_UNIT($,.RADIAN.));
#420=(NAMED_UNIT(*)SI_UNIT($,.STERADIAN.)SOLID_ANGLE_UNIT());
#423=ADVANCED_BREP_SHAPE_REPRESENTATION('',(#414),#422);
#430=PRODUCT_DEFINITION('design','',#429,#426);
#431=PRODUCT_DEFINITION_SHAPE('','SHAPE FOR 20006654P01.',#430);
#432=SHAPE_DEFINITION_REPRESENTATION(#431,#423);
ENDSEC;
END-ISO-10303-21;
